Song name
# A B C D E F G H I J K L M N O P Q R S T U V W X Y Z

Vital Signs - Aitebar tab

Couldnt find out the proper solo on net so thought i should give it a try
Chords, intro, piano part posted on net by someone
solo tabbed by me (BILAL SHOAIB)


plzzz do comment


Artist - Vital Signs
Title - Aitebar
Album - Aitebar


Intro

E-----------------------------|
B--9--9--10--9-----------7----|
G--9------------9--11----7----|    repeat once
D--9---------------------7----|
A-----------------------------|
E-----------------------------|

E---------------------|
B--7---9--------------|
G--7---9--------------|   and the song starts
D--7---9--------------|
A---------------------|
E---------------------|

(E) Aitebar bhi (A) aa hi jaye ga
(Abm) milo to sahi  (A) raasta koi
(B) mil hi jaye ga
(A) chalo to sahi (B) chalo to sahi
(E) aitebar bhi (A) aa hi jaye ga
(E) aa hi jaye ga

Piano solo:  These are the notes for the solo played on the piano

E------------------------------------------------------------|
B--------9--12--12--12--14--14--16--14--12--9--16--14--12-9--|
G-9--11------------------------------------------------------|  repeat once
D------------------------------------------------------------|
A------------------------------------------------------------|
E------------------------------------------------------------|

(E) dhoop mein kharra (A) jal raha hun mein
(E) saya do mujhe  (A) yeh mera junoon
(C#m) yeh meri jalan (Abm) hai meri saza
(A) meri yeh thakan (B) keh rahi hay kiya
(A) suno to sahi (B) suno to sahi
(E) aitebar bhi (A) aa hi jaye ga
(A) aa hi jaye ga


Guitar Solo (TABBED BY ME)

E-------------------------------------------------------|
B------12-7-9-------------------------------------------|
G----9--------9-13-9--8-11-8--6-8---6--9--9s11-9-9s11---|
D-------------------------------------------------------|
A-------------------------------------------------------|
E-------------------------------------------------------|


E-----------------------------------------------------------------------|
B-------------------------9p7---9^--------------------------------------|
G--6-4--6-9-9s11-9-9s11-------9-----8(ring)-h9p8-6--6-9--8(ring)h9p8--6-|
D-----------------------------------------------------------------------|
A-----------------------------------------------------------------------|
E-----------------------------------------------------------------------|

E--------------------------------------------------------------|
B--------12--7--9---------7-9---14p--14p--12-----14p--14p--12--|
G------9---------------6-8-------------------13----------------|
D----9--------------6-8----------------------------------------|
A--------------------------------------------------------------|
E--------------------------------------------------------------|

E----------------------------------------------------------|
B---7---7------------7---------7---12---9----14------------|
G-9---9---9-6-9--6-9---9-6-9-----9--------11---------------|
D----------------------------------------------------------|
A----------------------------------------------------------|
E----------------------------------------------------------|

E---------------------------------------------------------------|
B-14s17-16-14-12--12s17-16--12-14-12----------------------------|
G-------------------------------------13-11(1/2b)r--------------|
D---------------------------------------------------------------|
A---------------------------------------------------------------|
E---------------------------------------------------------------|

E-------------------------------------------------------------|
B--------12---------------------------------------------------|
G-9-11-13--13--11(1/2b)-9-8--6-8-9b-6~------------------------|
D-------------------------------------------------------------|
A-------------------------------------------------------------|
E-------------------------------------------------------------|


LEGENDS:
h :    hammer
p :    pull
b :    bend
r :    release
ring:  let the note ring
1/2b:  bend upto half fret


do chck out my cover songs on
http://www.youtube.com/user/bilalshoaib1


if queries plz contact
darkenchanter3@gmail.com
Tap to rate this tab
 
# A B C D E F G H I J K L M N O P Q R S T U V W X Y Z