Song name
# A B C D E F G H I J K L M N O P Q R S T U V W X Y Z

Vital Signs - Sanwali Saloni tab

This song is an awesome blast from the past and when I heard it again after so many 
I just had to try and play it.  I'm sharing my progress so far with you.


Standard EADGBe tuning


e|----------------------------------------------------------|
B|----------------------------------------------------------|
G|--------0--0-0-------0--0-0-------0--0-0------------------|
D|---0h2----------0h2----------0h2-----------4-5-4-2--------|
A|----------------------------------------------------------|
E|----------------------------------------------------------|

e|----------------------------------------------------------|
B|----------------------------------------------------------|
G|--------0--0-0-------0--0-0-------0--0-0------------------|
D|---0h2----------0h2----------0h2-----------4-5-4-2--------|
A|----------------------------------------------------------|
E|----------------------------------------------------------|

e|----------------------------------------------------------|
B|----------------------------------------------------------|
G|--------0--0-0-------0--0-0---------4--------4------------|
D|---4h5----------4h5-----------4--5-5---4--5-5---4-5-4-2---|
A|----------------------------------------------------------|
E|----------------------------------------------------------|

e|----------------------------------------------------------|
B|----------------------------------------------------------|
G|--------0--0-0-------0--0-0-------0--0-0--------0--0-0----|
D|---0h2----------0h2----------0h2-----------0h2------------|
A|----------------------------------------------------------|
E|----------------------------------------------------------|
Tap to rate this tab
# A B C D E F G H I J K L M N O P Q R S T U V W X Y Z