Song name
# A B C D E F G H I J K L M N O P Q R S T U V W X Y Z

Vitalic - The 30000 Feet Club tab

         The 30 000 Feet Club


                                 Vitalic
Piste 1

      E.  S S S S S E  E  E  E   8x
E||------------------------------||
B||------------------------------||
G||*----------------------------*||
D||*--0---0-----0-3-0-----------*||
A||-----------3--------3--0------||
E||--------------------------3---||


    Q    S S   S   S   E   E   E   E  20
---------------------------------------|
---------------------------------------|
*-------------------------------------*|
*--------L----------------------------*|
---------------------------------------|
---10------8s-10s-13s-10s--8s--5s--3---|


  Q    S S S S E  E  E  E
---------------------------|
---------------------------|
---------------------------|
--0----L---0-3-0-----------|
---------3--------3--0-----|
------------------------3--|


  Q    E  Q    E   S  S   E
-----------------------------|
-----------------------------|
-----------------------------|
--3-------3------------------|
-----------------------------|
-------1-------1--14s-1s-15--|


  H        E  Q    S S
-----------------------|
---------------------3-|
--------------3----L---|
-----------------------|
--1--------0-----------|
-----------------------|


  E  E  S S S S E  E  E   S   S
-------------------------/6s-10-|
--------------------------------|
--------------------------------|
------------0-------------------|
-----1----1---1----1------------|
--3-----3-------3-----3---------|


  Q    S S S S E  E  E  E
-------------1-------------|
--3----L-1-3---3--1--------|
---------------------2--0--|
---------------------------|
---------------------------|
---------------------------|


  Q    E  Q    E    S  S   E
--1-------1-------------------|
------------------------------|
------------------------------|
-------3-------3s--16s-3s-17--|
------------------------------|
------------------------------|


  H         E   Q     S  S
----------------------L-----|
----------------------------|
--3s--------2--15s------19s-|
----------------------------|
----------------------------|
----------------------------|


  E   E   S  S  S  S  E   E   E   S  S
---------------------------------10s-6-|
---------------------------------------|
--0s--3s--0s-3s-7s-3s-0s--3s--0--------|
---------------------------------------|
---------------------------------------|
---------------------------------------|


    Q    S S S S E  E  E  E
|--------------1-------------|
|---3----L-1-3---3--1--------|
|*---------------------2--0--|
|*---------------------------|
|----------------------------|
|----------------------------|


  Q    E  Q    E    S  S   E
--1-------1-------------------|
------------------------------|
------------------------------|
-------3-------3s--16s-3s-17--|
------------------------------|
------------------------------|


  H         E   Q     S  S
----------------------L-----|
----------------------------|
--3s--------2--15s------19s-|
----------------------------|
----------------------------|
----------------------------|


  E   E   S  S  S  S  E   E   E   S  S
---------------------------------10s-6---|
-----------------------------------------|
--0s--3s--0s-3s-7s-3s-0s--3s--0----------|
-----------------------------------------|
-----------------------------------------|
-----------------------------------------|


  E   E   S  S  S  S  E   E   E   S  S
---------------------------------10s-6-|
---------------------------------------|
--0s--3s--0s-3s-7s-3s-0s--3s--0--------|
---------------------------------------|
---------------------------------------|
---------------------------------------|


  Q    S S S S E  E  E  E
-------------1-------------|
--3----L-1-3---3--1--------|
---------------------2--0--|
---------------------------|
---------------------------|
---------------------------|


  Q    E  Q    E    S  S   E
--1-------1-------------------|
------------------------------|
------------------------------|
-------3-------3s--16s-3s-17--|
------------------------------|
------------------------------|


  H         E   Q     S  S
----------------------L-----|
----------------------------|
--3s--------2--15s------19s-|
----------------------------|
----------------------------|
----------------------------|


  E   E   S  S  S  S  E   E   E   S  S
---------------------------------10s-6-|
---------------------------------------|
--0s--3s--0s-3s-7s-3s-0s--3s--0--------|
---------------------------------------|
---------------------------------------|
---------------------------------------|


  Q    S S S S E  E  E  E
-------------1-------------|
--3----L-1-3---3--1--------|
---------------------2--0--|
---------------------------|
---------------------------|
---------------------------|


  Q    E  Q    E    S  S   E
--1-------1-------------------|
------------------------------|
------------------------------|
-------3-------3s--16s-3s-17--|
------------------------------|
------------------------------|


  H         E   Q     S  S
----------------------L-----|
----------------------------|
--3s--------2--15s------19s-|
----------------------------|
----------------------------|
----------------------------|


  E   E   S  S  S  S  E   E   E   S  S
---------------------------------10s-6-|
---------------------------------------|
--0s--3s--0s-3s-7s-3s-0s--3s--0--------|
---------------------------------------|
---------------------------------------|
---------------------------------------|


  Q    S S S S E  E  E  E
-------------1-------------|
--3----L-1-3---3--1--------|
---------------------2--0--|
---------------------------|
---------------------------|
---------------------------|


  Q    E  Q    E    S  S   E
--1-------1-------------------|
------------------------------|
------------------------------|
-------3-------3s--16s-3s-17--|
------------------------------|
------------------------------|


  H         E   Q     S  S
----------------------L-----|
----------------------------|
--3s--------2--15s------19s-|
----------------------------|
----------------------------|
----------------------------|


  E   E   S  S  S  S  E   E   E   S  S
---------------------------------10s-6-|
---------------------------------------|
--0s--3s--0s-3s-7s-3s-0s--3s--0--------|
---------------------------------------|
---------------------------------------|
---------------------------------------|


  H         E   Q     S  S
----------------------L-----|
----------------------------|
--3s--------2--15s------19s-|
----------------------------|
----------------------------|
----------------------------|


  E   E   S  S  S  S  E   E   E   S  S
---------------------------------10s-6-|
---------------------------------------|
--0s--3s--0s-3s-7s-3s-0s--3s--0--------|
---------------------------------------|
---------------------------------------|
---------------------------------------|


  H         E    Q     S  S
-----------------------L----|
----------------------------|
----------------------------|
----------------------------|
--1s--------0s--13s------17-|
----------------------------|


  E   E   S  S   S  S  E   E   E    S
-----------------------------------------|
-----------------------------------------|
-----------------------------------------|
-----------------------------------------|
-----------------------------------------|
--3s--6s--3s-6s-10s-6s-3s--6s--3s--22s-1-|


  H         E    Q     S  S
-----------------------L----|
----------------------------|
----------------------------|
----------------------------|
--1s--------0s--13s------17-|
----------------------------|


  E   E   S  S   S  S  E   E   E    S
-----------------------------------------|
-----------------------------------------|
-----------------------------------------|
-----------------------------------------|
-----------------------------------------|
--3s--6s--3s-6s-10s-6s-3s--6s--3s--22s-1-|


  H         E    Q     S  S
-----------------------L----|
----------------------------|
----------------------------|
----------------------------|
--1s--------0s--13s------17-|
----------------------------|


  E   E   S  S   S  S  E   E   E    S
-----------------------------------------|
-----------------------------------------|
-----------------------------------------|
-----------------------------------------|
-----------------------------------------|
--3s--6s--3s-6s-10s-6s-3s--6s--3s--22s-1-|


  H         E    Q     S  S
-----------------------L----|
----------------------------|
----------------------------|
----------------------------|
--1s--------0s--13s------17-|
----------------------------|


  E   E   S  S   S  S  E   E   E    S
-----------------------------------------|
-----------------------------------------|
-----------------------------------------|
-----------------------------------------|
-----------------------------------------|
--3s--6s--3s-6s-10s-6s-3s--6s--3s--22s-1-|


Duration Legend
---------------
W - whole
H - half
Q - quarter
E - 8th
S - 16th
T - 32nd
X - 64th
. - note dotted
|-n-|  - n-tuplets


Tablature Legend
----------------
L - tied note
x - dead note
g - grace note
(n) - ghost note
> - accentuded note
NH - natural harmonic
AH - artificial harmonic
TH - tapped harmonic
SH - semi harmonic
PH - pitch harmonic
h - hammer on
p - pull off
b - bend
br - bendRelease
pb - preBend
pbr - preBendRelease
brb - bendReleaseBend
\n/ - tremolo bar dip
\n - tremolo bar dive
-/n - tremolo bar Release up
/n\ - tremolo bar inverted dip
/n - tremolo bar return
-\n - tremolo bar Release down
S - shift slide
s - legato slide
/ -  slide into from below or out of upwards
\ -  slide into from above or out of downwards
~ - vibrato
W - wide vibrato
tr - trill
TP - tremolo picking
T - tapping
S - slap
P - pop
< - fade in
^ - brush up
v - brush down
Tap to rate this tab
 
# A B C D E F G H I J K L M N O P Q R S T U V W X Y Z