Song name
# A B C D E F G H I J K L M N O P Q R S T U V W X Y Z

Vitamin X - Rip It Out tab

-----------------------------------------------------------------------
                            Vitamin X - Rip It Out
-----------------------------------------------------------------------

Tabs may not be 100% Correct so Listen to the Rip It Out and correct it :)

By: Uroš Žarn       E-mail: uroszar@gmail.com

2x

e|--------------------------------------------------------------------|
B|--------------------------------------------------------------------|
G|--------------------------------------------------------------------|
D|------10-----------------------------10-10-10-----------------------|
A|---10-8--10—-7--7-7-7--12--12-12-12--8--8--8------------------------|
E|---8-----8---5—-5-5-5--10--10-10-10---------------------------------|

2x

e|--------------------------------------------------------------------|
B|--------------------------------------------------------------------|
G|------10-----------------------------8-8-8--------------------------|
D|---10----10--7--7-7-7--12--12-12-12---------------------------------|
A|--------------------------------------------------------------------|
E|--------------------------------------------------------------------|

4x
  
e|--------------------------------------------------------------------|
B|--------------------------------------------------------------------|
G|--------------------------------------------------------------------|
D|--------------------------------------------------------------------|
A|---10-10-10--7--7-7-7-----------------------------------------------|
E|---8--8--8---5--5-5-5-----------------------------------------------|
                  
8x

e|--------------------------------------------------------------------|
B|--------------------------------------------------------------------|
G|--------------------------------------------------------------------|
D|--------------------------------------------------------------------|
A|---12-12--10-10-----------------------------------------------------|
E|---10-10--8—-8------------------------------------------------------|
               

4x
  
e|--------------------------------------------------------------------|
B|--------------------------------------------------------------------|
G|--------------------------------------------------------------------|
D|--------------------------------------------------------------------|
A|---10-10-10--7--7-7-7-----------------------------------------------|
E|---8--8--8---5--5-5-5-----------------------------------------------|
                  
8x

e|--------------------------------------------------------------------|
B|--------------------------------------------------------------------|
G|--------------------------------------------------------------------|
D|--------------------------------------------------------------------|
A|---12-12--10-10-----------------------------------------------------|
E|---10-10--8—-8------------------------------------------------------|

2x

e|--------------------------------------------------------------------|
B|--------------------------------------------------------------------|
G|--------------------------------------------------------------------|
D|------10-----------------------------10-10-10-----------------------|
A|---10-8--10—-7--7-7-7--12--12-12-12--8--8--8------------------------|
E|---8-----8---5—-5-5-5--10--10-10-10---------------------------------|




2x

e|--------------------------------------------------------------------|
B|--------------------------------------------------------------------|
G|------10-----------------------------8-8-8--------------------------|
D|---10----10--7--7-7-7--12--12-12-12---------------------------------|
A|--------------------------------------------------------------------|
E|--------------------------------------------------------------------|


e|--------------------------------------------------------------------|
B|--------------------------------------------------------------------|
G|--------------------------------------------------------------------|
D|------10------------------------------------------------------------|
A|---10-8--10—-7------------------------------------------------------|
E|---8-----8---5—-----------------------------------------------------|

                             HXC KK
========================================================================
Tap to rate this tab
# A B C D E F G H I J K L M N O P Q R S T U V W X Y Z