Song name
# A B C D E F G H I J K L M N O P Q R S T U V W X Y Z

Vitro - Mentally Dull tab

Vitro, Mentally Dull.
Tabbed by Brett Massingham, kornfreak_40@hotmail.com.
  
Artist: Vitro
Title: Mentally Dull
Album: Chef Aid: The South Park Album

Standard Tuning

Chorus

E|-------------|
B|-------------|
G|---6-6-6-6---|
D|-------------| x 4
A|-------------|
E|-------------|

E|-------------|
B|-------------|
G|---8-8-8-8---|
D|-------------| x 4
A|-------------|
E|-------------|

E|-------------|
B|-------------|
G|---4-4-4-4---|
D|-------------| x 4
A|-------------|
E|-------------|

E|-------------|
B|-------------|
G|---6-6-6-6---|
D|-------------| x 4
A|-------------|
E|-------------|

I only know the chorus.
See ya! 
:: Ultimate Guitar Archive :: 
http://www.ultimate-guitar.com 

Tap to rate this tab
# A B C D E F G H I J K L M N O P Q R S T U V W X Y Z