Song name
# A B C D E F G H I J K L M N O P Q R S T U V W X Y Z

Viva Voce - Lesson No1 tab

Help us improve GuitareTab! Take a short survey!
ARTIST: Viva Voce ~ http://www.vivavoce.com
SONG: Lesson No.1
ALBUM: Heat Can Melt Your Brain
TUNING: Standard - EADGBe

Riff #1
e--------------------------------------------------------------------------|
B--------------------------------------------------------------------------|
G-----------6--------4------8--8--8--------6-------4-----8--8--8-----------|
D------5s7---7--5--5---5s9-9--9--9--9--7-7--7--5-5--5s9-9--9--9--9---------|
A--------------------------------------------------------------------------|
E--------------------------------------------------------------------------|

Riff #2
e---------------------------------------|
B---------------------------------------|
G---9s11s9--7s9s7--8b~------------------|
D---------------------------------------|
A---------------------------------------|
E---------------------------------------|

Riff #3
e---------------------------------------|
B---------------------------------------|
G---2---------------4-------------------|
D---2-------2-------4-------------------|
A---0-------2-------2-------------------|
E-----------0---------------------------|

You'll have to work out the strumming pattern for riff #3 ;)
That's it...
Related for Lesson No1 tab