Song name
# A B C D E F G H I J K L M N O P Q R S T U V W X Y Z

Vivaldi Antonio - Concerto In A Minor tab

-------------------------------------------------------------------------------
     Concerto in A Minor, Opus III, No. 6 - Antonio Vivaldi (1680 - 1743)
-------------------------------------------------------------------------------
Tabbed by: theheirapparent
Email: devious_dishwasher@hotmail.com

This is the violin part, and im pretty sure its mostly accurate. oh yeah, and this is my 
tab so dont be too judgmental!

Tuning: standard

Allegro
e|--0--5-5-5-5-5----8-7-5--8-7-5---5-8-7-5--3-1-0----------0-------------0--|
B|--------------------------------------------------3-1-0-----1-------------|
G|----------------------------------------------------------------2--2------|
D|--------------------------------------------------------------------------|
A|--------------------------------------------------------------------------|
E|--------------------------------------------------------------------------|
                              (Same rhythm as before)
e|-5-5-5-5--5-3-1-0-1--------3-3-3-3--3-1-0-----0--------1-1-1-1--1-0-------|
B|--------------------3----------------------3------1-----------------------|
G|--------------------------------------------------------------------------|
D|--------------------------------------------------------------------------|
A|--------------------------------------------------------------------------|
E|--------------------------------------------------------------------------|
                                      rest
e|------------0-0-0-0--0----------------|-------0-5-5-5--------0-5-5-5------|
B|-3-1-3-0-----------------3-1-0-1------|-----1--------------1--------------|
G|----------------------------------2---|--2---------------2----------------|
D|--------------------------------------------------------------------------|
A|--------------------------------------------------------------------------|
E|--------------------------------------------------------------------------|

e|-------0-6-6-6----------0-6-6-6-5-4-3-4-7---------------------------------|
B|----1----------------1---------------------3~---------0--3-3-3------------|
G|-2----------------2---------------------------------1---------------------|
D|-------------------------------------------------2------------------------|
A|--------------------------------------------------------------------------|
E|--------------------------------------------------------------------------|

e|-------------------------------0-----------1-0-----|0-5------4-5----------|
B|------0--3-3-3--------0-3-3-3-----1-0------------3-|----------------------|
G|----1---------------1-------------------2----------|----------------------|
D|--2--------------2----------------------------------------2---------------|
A|--------------------------------------------------------------------------|
E|--------------------------------------------------------------------------|
 Solo
e|--0--5-5-5-5-5----8-7-5--8-7-5---5-8-7-5--3-1-0----------0----------------|
B|--------------------------------------------------3-1-0-----1-------------|
G|----------------------------------------------------------------2--2------|
D|--------------------------------------------------------------------------|
A|--------------------------------------------------------------------------|
E|--------------------------------------------------------------------------|

                               {im not so sure about this part} End solo
e|-0----------------------------3-------------------------------------------|
B|---1--------5-8-6-5-5--3-3-------0-1---------1------0-1-------------------|
G|------2--2----------------------------------------------------------------|
D|--------------------------------------2--4--------------------------------|
A|--------------------------------------------------------------------------|
E|-------------------------------------------------3------------------------|


| /  slide up
| \  slide down
| h  hammer-on
| p  pull-off
| ~  vibrato
| +  harmonic
| x  Mute note
===============================================================================
Tap to rate this tab
# A B C D E F G H I J K L M N O P Q R S T U V W X Y Z