Song name
# A B C D E F G H I J K L M N O P Q R S T U V W X Y Z

Vive La Fete - Hot Shot tab

oficial website: http://www.vivelafete.be/

intro & vers :
E -----------------------|
B -----------------------|
G ---8-8----8------------|
D ---8-8----8------------|
A ---6-6----6------------|
E -----------------------|

refrain (allez allez allez...)
E --------------------------------------------------------------------|
B --------------------------------------------------------------------|
G --------------------------------------------------------------------|
D ----10101010101010101010101010101010-6-6-6-6-6-6-6-6-6-6-6-6-6------|
A ----10101010101010101010101010101010-6-6-6-6-6-6-6-6-6-6-6-6-6------|
E ----8-8-8-8-8-8-8-8-8-8-8-8-8-8-8-8--4-4-4-4-4-4-4-4-4-4-4-4-4------|
Tap to rate this tab
# A B C D E F G H I J K L M N O P Q R S T U V W X Y Z