Song name
# A B C D E F G H I J K L M N O P Q R S T U V W X Y Z

Vivian Girls - Wild Eyes tab

			     WILD EYES - Vivian Girls

Verse:
e|------------------|
B|------------------|
G|------------------|
D|--3-3-3-3-5-5-5-5-|
A|--3-3-3-3-5-5-5-5-|
E|--1-1-1-1-3-3-3-3-| x2

e|-----------------0-0-0-0-0-0-0-0--|
B|-----------------1-1-1-1-1-1-1-1--|
G|-----------------0-0-0-0-0-0-0-0--|
D|-3-3-3-3-5-5-5-5-2-2-2-2-2-2-2-2--|
A|-3-3-3-3-5-5-5-5-3-3-3-3-3-3-3-3--|
E|-1-1-1-1-3-3-3-3------------------|

Chorus:
e|-0-0-0-0-0-0-0-0-0-0-|
B|-0-1-1-1-1-1-1-1-1-1-|
G|-0-2-0-0-0-0-0-0-0-0-|
D|-2-2-2-2-2-2-2-2-2-2-|
A|-2-0-3-3-3-3-3-3-3-3-|
E|-0-------------------|

Solo:
e|-3-33-33-5-55-55-3-33-33-7-77-77-5-5-8-8-7-7-3-3-12-12-12-12-12-12-12-12-|
B|-------------------------------------------------------------------------|
G|-------------------------------------------------------------------------|
D|-------------------------------------------------------------------------|
A|-------------------------------------------------------------------------|
E|-------------------------------------------------------------------------|

e|-3-33-33-5-55-55-3-33-33-7-77-77-5-5-8-8-7-7-3-3-12-12-12-12-12-12-12-12-|
B|--------------------------------------------------------0--0--0--0--0--0-|
G|-----------------------------------------------------------0--0--0--0--0-|
D|--------------------------------------------------------------0--0--0--0-|
A|-----------------------------------------------------------------0--0--0-|
E|--------------------------------------------------------------------0--0-|

Chorus.
End on C.
Tabbed after having seen it played live this way.
It was recorded on a Squier 51, so try for a thin tone and use lots of reverb.
http://www.myspace.com/viviangirlsnyc

x
Tap to rate this tab
 
# A B C D E F G H I J K L M N O P Q R S T U V W X Y Z