Song name
# A B C D E F G H I J K L M N O P Q R S T U V W X Y Z

Vivian Girls - All The Time chords

Highlighted       Show chord diagrams
C
I see him all the time
F
Every night and everyday
C
I know we're doin' fine
F
He calls me, I'm on my way
Em
We never sit around
Am
We just go outside instead
D                    Am              G
He steals my thunder while I pick the flowers in his head
   

   All     the      time            x2
e---------------------------------|
B---------------------------------|
G---------------------------------|
D--7--5---5--5--3---3--3--2-------|
A--7--5---5--5--3---3--3--2-------|
E--5--3---3--3--1---1--1--0-------|

F
We go commit a crime
C                   D
I see him all the time

C, F, C, F
Em, Am
D, Am, G 


   All     the      time            x2
e---------------------------------|
B---------------------------------|
G---------------------------------|
D--7--5---5--5--3---3--3--2-------|
A--7--5---5--5--3---3--3--2-------|
E--5--3---3--3--1---1--1--0-------|


F
We go commit a crime
C                   D
I see him all the time


C
I see him all the time
F
Every minutes, every hour
C
Our love is like a lime
F
Sometimes sweet but mostly sour
Em
We never fool around
Am
We just walk and talk instead
D                    Am               G
He steals my thunder while I pick the flowers in his head

   All     the      time            x4
e---------------------------------|
B---------------------------------|
G---------------------------------|
D--7--5---5--5--3---3--3--2-------|
A--7--5---5--5--3---3--3--2-------|
E--5--3---3--3--1---1--1--0-------|

F                E
We go commit a crime
F                   E
We never wait in line
F                        E
But he always looks so fine
F                   G
I see him all the time

    All     the      time            x4
e---------------------------------|
B---------------------------------|
G---------------------------------|
D--7--5---5--5--3---3--3--2-------|
A--7--5---5--5--3---3--3--2-------|
E--5--3---3--3--1---1--1--0-------|
Tap to rate this tab
# A B C D E F G H I J K L M N O P Q R S T U V W X Y Z