Song name
# A B C D E F G H I J K L M N O P Q R S T U V W X Y Z

Vixen - I Want You To Rock Me tab

Vixen
I Want You To Rock Me
From The Album Vixen
Intro                     2cnd Time
e-----------------------|-----------|
b-----------------------|-----------|
g-----------------------|-----------|
d-9-1111--5-77-9-99-11-9|----------7|
a-9--9-9--5-55-7-77--9-7|-9-7--7-9--|
e-----------------------|-----9-----|
Verse
(it's the chords to the intro played twice)
(you will understand when you listen to the song)

Chorus
(the chorus is the intro played exactly the same)

Solo
This is the one part of the solo every one likes so i'll only
tab the one part.
e--------------------------------------|
b--------------------------------------|
g-6b-6b-6b-4h6-6b-6-4-6-4h6-6b-6-4--4--|
d----------------------------------6-6-|
a--------------------------------------|
e--------------------------------------|

e----------------------7b-7-4-|
b-4-7-4h7-7b-7b-7-4h7p4-------|
g-----------------------------|
d-----------------------------|
a-----------------------------|
e-----------------------------|
This tab is perfect so dont leave comments sayin shit ok.
Vixen is on tour now with enuff z nuff and u shud go see them.
Peace.
Tap to rate this tab
 
# A B C D E F G H I J K L M N O P Q R S T U V W X Y Z