Song name
# A B C D E F G H I J K L M N O P Q R S T U V W X Y Z

Vlatko Stefanovski Trio - Vlatkovo Oro tab

Help us improve GuitareTab! Take a short survey!
Vlatkovo Oro
Vlatko Stefanovski Trio

Tabbed by Almir Nametak, Jun 2009
mokra@freenetname.co.uk

Riff

E------------------------------------------------------------------------|
B------------------------------------------------------------------------|
G---3-3-5---3--0--0--0-0/1------------------------0----------------------|
D---3-3-5---3---3--3------1---x3 4th time end in--2---and start again----|
A---1-1-3---1----3--3-----------------------------2----------------------|
E---------3----1----------------------------------0----------------------|

All notes below played FAST..

Main "Theme"

E------------------------------------------------------------------------|
B----------------9-11-9--------------------------------------------------|
G---------9-10-12------12-10-10-9--9----------9-10-----------------------|
D----10-11-----------------------11-11-10-8-10---------------------------| x2
A------------------------------------------------------------------------|
E------------------------------------------------------------------------|

E------------------------------------------------------------------------|
B----------------9-11-9-11-9-11-9-11-9-11-9-11-9-11-9-11-9-11-13---------|
G---------9-10-12--------------------------------------------------------|
D----10-11---------------------------------------------------------------|
A------------------------------------------------------------------------|
E------------------------------------------------------------------------|

"Bridge"

E-----12/13-13-13-13/12--------------------------------------------------|
B----------------------14-13-11-13-14-11-13------------------------------|
G------------------------------------------------------------------------|
D------------------------------------------------------------------------|
A------------------------------------------------------------------------|
E------------------------------------------------------------------------|

E-----12/13-13-13-13-13/12-----------------------------------------------|
B-------------------------14-13-11-13-14-11-13---------------------------|
G------------------------------------------------------------------------|
D------------------------------------------------------------------------|
A------------------------------------------------------------------------|
E------------------------------------------------------------------------|

E-----12/13-13-13-13/12--------------------------------------------------|
B----------------------14-13-11-13-14-11-13------------------------------|
G------------------------------------------------------------------------|
D------------------------------------------------------------------------|
A------------------------------------------------------------------------|
E------------------------------------------------------------------------|

E----------------------------------8-------------------------------------|
B-----11-10-9-8-11-10-9-8-8-9-10-11--------------------------------------|
G------------------------------------------------------------------------|
D------------------------------------------------------------------------|
A------------------------------------------------------------------------|
E------------------------------------------------------------------------|


Another "Theme"

E-----1-1-0---0-------------0-1-1-1-0---0--------------------------------|
B----------2-2-2-1-1-1-2-1-2---------2-2-2-1-1-1-2-1---------------------|
G-----------------------3-------------------------3----------------------|
D------------------------------------------------------------------------| x3
A------------------------------------------------------------------------|
E------------------------------------------------------------------------|

...end with
E-----1-1-0---0-------------0-1-3-4-3--6-4-3--3-4-6-9-8------------------|
B----------2-2-2-1-1-1-2-1-2----------6------6---------------------------|
G-----------------------3------------------------------------------------|
D------------------------------------------------------------------------|
A------------------------------------------------------------------------|
E------------------------------------------------------------------------|

Before solo Key changes to D so adjust main theme 3 frets high
Related for Vlatkovo Oro tab