Song name
# A B C D E F G H I J K L M N O P Q R S T U V W X Y Z

Vlatko Stefanovski Trio - Kasapsko Oro tab

Pesmu sam skinuo po sluhu, a ovo je i prvi tab koji postavljam. Ako nesto treba
ispraviti - napisite u komentaru.



(/) Slide Up  (\) Slide Down  (h) Hammer On  (p) Pull Off  (b) Bend (r) Release (v) Vibrato


Uvod:

E|--------------------------------|
B|--------------------------------|
G|--------------------------------|
D|-----7--7--7-----5--5-----5--5--|
A|--0-----------0-----------------|
E|--------------------------------|

Prva tema:

E|----------------------0--3--2--0----------------------------------0--3p2p0--3----0------|
B|-------------0--1--3--------------3--1--0----------------0--1--3---------------4--------|
G|-------0--2--------------------------------2-------0--2---------------------------------|
D|--1/2-------------------------------------------2---------------------------------------|
A|----------------------------------------------------------------------------------------|
E|----------------------------------------------------------------------------------------|



E|----------------------0--3--2--0----------------------------------------------|
B|-------------0--1--3--------------3--1--0-----4--5--6v--5--4--5--4h5p4--------|
G|-------0--2--------------------------------2---------------------------5--4---|
D|--1/2-----------------------------------------------------------------------7-|
A|------------------------------------------------------------------------------|
E|------------------------------------------------------------------------------|


Druga tema:

E|--5--7--5--------------------------------------5--7--5--------------------------4--5--4--5--|
B|-----------8--7--8--7--5--8--7--5--4--------------------8--7--8--7--5--4--5--7--------------|
G|--------------------------------------5--4--------------------------------------------------|
D|-------------------------------------------7------------------------------------------------|
A|--------------------------------------------------------------------------------------------|
E|--------------------------------------------------------------------------------------------|



E|--5--7--5------------------------------------------------------------------------|
B|-----------8--7--8--7--5--8--7--5--4------------4--5--6v--5--4--5--4h5p4---------|
G|--------------------------------------5--4-------------------------------5--4----|
D|--------------------------------------------7---------------------------------7--|
A|---------------------------------------------------------------------------------|
E|---------------------------------------------------------------------------------|



Treca tema:


E|------------------------3--2--0-------------------------------0--3p2p0--2---------|
B|--2/3---2/3---3p2h3--3-----------3--1--0-----2/3--3--3--3--2-3--------------4--5v-|
G|-----------------------------------------2----------------------------------------|
D|----------------------------------------------------------------------------------|
A|----------------------------------------------------------------------------------|
E|----------------------------------------------------------------------------------|



E|------------------------3--2--0---------------------------------------------------|
B|--2/3---2/3---3p2h3--3-----------3--1--0-----4--5--6v--5--4--5--4h5p4-------------|
G|-----------------------------------------2---------------------------5--4---------|
D|---------------------------------------------------------------------------7------|
A|----------------------------------------------------------------------------------|
E|----------------------------------------------------------------------------------|
Tap to rate this tab
# A B C D E F G H I J K L M N O P Q R S T U V W X Y Z