Song name
# A B C D E F G H I J K L M N O P Q R S T U V W X Y Z

Vocaloid - Its My Road-roller tab

This is the tabs for It's My Road-Roller! Sung by Kagamine Rin and Kagamine Len, it was
played on a acoustic believe it or not, so it might sound different on an electric,
shouldnt really matter. You should play along with the song, to get timing better and it 
may not look like much, but when I played this against the song, it sounded pretty alright.
It may look easy, but its not really THAT easy.

-XING805



Intro
e|---------------------------------------------------------------------|
B|---------------------------------------------------------------------|
G|---------------------------------------------------------------------|
D|---------------------------------------------------------------------|
A|---------------------------------------------------------------------|
C|333-3h4-3------------------------------------------------------------| x2

Verse
e|---------------------------------------------------------------------|
B|---------------------------------------------------------------------|
G|---------------------------------------------------------------------|
D|---------------------------------------------------------------------|
A|---------------------------------------------------------------------|
C|33-3h4-3/12----------------------------------------------------------| x5

Chorus
e|---------------------------------------------------------------------|
B|---------------------------------------------------------------------|
G|---------------------------------------------------------------------|
D|---------------------------------------------------------------------|
A|---------------------------------------------------------------------|
C|3h4-323--------------------------------------------------------------| x4

Solo
e|---------------------------------------------------------------------|
B|---------------------------------------------------------------------|
G|---------------------------------------------------------------------|
D|5-7-7/9-9/7-7-5-5454-5-7-6565-6-7-8-7--------------------------------|
A|-6-----------6--------6----------------------------------------------|
C|---------------------------------------------------------------------|

Outro
e|---------------------------------------------------------------------|
B|---------------------------------------------------------------------|
G|---------------------------------------------------------------------|
D|---------------------------------------------------------------------|
A|---------------------------------------------------------------------|
C|333-3h4-3------------------------------------------------------------| x4
Tap to rate this tab
# A B C D E F G H I J K L M N O P Q R S T U V W X Y Z