Song name
# A B C D E F G H I J K L M N O P Q R S T U V W X Y Z

Vogelfrei - Stiefeljungs tab

Intro
e--------------------------------------------------3-------------|
h-------1-0h1-------1-0h1---------1-0h1--------------3-----------|
g-----2-----------2------2------2------2---------0-----0---------|
D---2-----------2----------2--3----------3-----0---------0-------|   4x
A-0-----------0--------------3---------------2-------------0-----|
E------------------------------------------3---------------------|


danach
e---------------------------------------------------|
h---------------------------------------------------|
g---------------------------------------------------|
D-7----7-7-7-7-7-7-3-3-3-5-5-5----------------------|  1x
A-7----7-7-7-7-7-7-3-3-3-5-5-5----------------------|
E-5----5-5-5-5-5-5-1-1-1-3-3-3----------------------|

e---------------------------------------------------|
h---------------------------------------------------|
g---------------------------------------------------|
D-7-7-7-7-7-7-3-3-3-5-5-5---------------------------|  3x    
A-7-7-7-7-7-7-3-3-3-5-5-5---------------------------|
E-5-5-5-5-5-5-1-1-1-3-3-3---------------------------|


1.Strophe
e---------------------------------------------------|
h---------------------------------------------------|
g---------------------------------------------------|
D-7-7-7-7-7-7-3-3-3-5-5-5---------------------------|  2x
A-7-7-7-7-7-7-3-3-3-5-5-5---------------------------|
E-5-5-5-5-5-5-1-1-1-3-3-3---------------------------|


Refrain
e---------------------------------------------------|
h---------------------------------------------------|
g---------------------------------------------------|
D-7-7-7-3-3-3-7-7-7-3-3-3-7-7-7-3-3-3-3-5-5-5-5-----|  2x
A-7-7-7-3-3-3-7-7-7-3-3-3-7-7-7-3-3-3-3-5-5-5-5-----|
E-5-5-5-1-1-1-5-5-5-1-1-1-5-5-5-1-1-1-1-3-3-3-3-----|


Zwischenspiel
e---------------------------------------------------|
h---------------------------------------------------|
g---------------------------------------------------|
D-7-7-7-7-7-7-3-3-3-5-5-5---------------------------|  2x
A-7-7-7-7-7-7-3-3-3-5-5-5---------------------------|
E-5-5-5-5-5-5-1-1-1-3-3-3---------------------------|


2.Strophe
e---------------------------------------------------|
h---------------------------------------------------|
g---------------------------------------------------|
D-7-7-7-7-7-7-3-3-3-5-5-5---------------------------|  2x
A-7-7-7-7-7-7-3-3-3-5-5-5---------------------------|
E-5-5-5-5-5-5-1-1-1-3-3-3---------------------------|


Refrain
e---------------------------------------------------|
h---------------------------------------------------|
g---------------------------------------------------|
D-7-7-7-3-3-3-7-7-7-3-3-3-7-7-7-3-3-3-3-5-5-5-5-----|  2x
A-7-7-7-3-3-3-7-7-7-3-3-3-7-7-7-3-3-3-3-5-5-5-5-----|
E-5-5-5-1-1-1-5-5-5-1-1-1-5-5-5-1-1-1-1-3-3-3-3-----|


Zwischenspiel
e---------------------------------------------------|
h---------------------------------------------------|
g---------------------------------------------------|
D-7-7-7-7-7-7-3-3-3-5-5-5---------------------------|  2x
A-7-7-7-7-7-7-3-3-3-5-5-5---------------------------|
E-5-5-5-5-5-5-1-1-1-3-3-3---------------------------|


Gitarrensolo
e-----------------------------------------------------------------------|
h-----------------------------------------------------------------------|
g-9---7-9-10-12-9-7-5-7-9-7-9-10-12-9-7p8-5-------5-------5-7-4---------|
D-------------------------------------------7-5h7---7-5h7-------7-5-7---|
A-----------------------------------------------------------------------|
E-----------------------------------------------------------------------|

e------------------------------------------------------------------|
h------------------------------------------------------------------|
g---4-5-7-9-7-5-4---4-5-7-4----------4-5-7-4-----------------------|
D-7---------------7---------7-5h7-7-7------------------------------|  1x
A------------------------------------------------------------------|
E------------------------------------------------------------------|	


Refrain
e---------------------------------------------------|
h---------------------------------------------------|
g---------------------------------------------------|
D-7-7-7-3-3-3-7-7-7-3-3-3-7-7-7-3-3-3-3-5-5-5-5-----|  2x
A-7-7-7-3-3-3-7-7-7-3-3-3-7-7-7-3-3-3-3-5-5-5-5-----|
E-5-5-5-1-1-1-5-5-5-1-1-1-5-5-5-1-1-1-1-3-3-3-3-----|


Zwischenspiel
e---------------------------------------------------|
h---------------------------------------------------|
g---------------------------------------------------|
D-7-7-7-7-7-7-3-3-3-5-5-5---------------------------|  2x
A-7-7-7-7-7-7-3-3-3-5-5-5---------------------------|
E-5-5-5-5-5-5-1-1-1-3-3-3---------------------------|




1.Strophe:
Schlicht und einfach, so wollen wir leben
Niemals für die Karriere streben
Wir brauchen kein Friseur oder Mode irgendwann
Wir ham ganz kahle Köpfe und Hosenträger an

Refrain:
Stiefeljungs, das sind wir
Die Straße ist unser Revier 
Wir stehen zu dem
Zu dem was wir sind
Stiefeljungs, das sind wir
Die Straße ist unser Revier
Wer was will,
Der kriegt auch was von uns

2.Strophe:
Auch wenn wir nicht gern zur Arbeit gehn
So machen wirs trotzdem, das ist zu verstehn
Wir wollen keinem auf der Tasche liegen
Wollen selbstverdiente Kohle kriegen

Refrain:
Stiefeljungs, das sind wir
Die Straße ist unser Revier 
Wir stehen zu dem
Zu dem was wir sind
Stiefeljungs, das sind wir
Die Straße ist unser Revier
Wer was will,
Der kriegt auch was von uns

Solo

Refrain:
Stiefeljungs, das sind wir
Die Straße ist unser Revier 
Wir stehen zu dem
Zu dem was wir sind
Stiefeljungs, das sind wir
Die Straße ist unser Revier
Wer was will,
Der kriegt auch was von uns
Tap to rate this tab
 
# A B C D E F G H I J K L M N O P Q R S T U V W X Y Z