Song name
# A B C D E F G H I J K L M N O P Q R S T U V W X Y Z

Voice Of A Generation - Cause For Alarm tab

-------------------------------------------------------------------------------
                             Cause For Alarm- Voice Of A Generation
-------------------------------------------------------------------------------
Tabbed by: TomHalfPInt
E-mail:Tommyhalfpint@gmail.com
This is the official breaking of my tablature virginity Love these
guys(http://www.epitaph.com/artists/artist/84/Voice_Of_A_Generation) no tabs yet online 
what the???? thought
i'd get on  it enjoy! feedback would be cool, cheers Tommy!
Tuning: EADGBE
The intro leads something like this
e|-6-6--7-7--10-10------------|
B|-7-7--8-8--10-10--12-10-12--|
G|-6-6--7-7---------11-11-11--|
D|----------------------------|
A|----------------------------|
E|----------------------------|

e|-6-6--7-7--10-10------------|
B|-7-7--8-8--10-10--12-10-12--|
G|-6-6--7-7---------11-11-11--|
D|----------------------------|
A|----------------------------|
E|----------------------------|

e|-6-6--7-7--10-10---------------------------------------------------------------------|
B|-7-7--8-8--10-10--12-12--------------------------------------------------------------|
G|-6-6--7-7---------11-11--------------------------------------------------------------|
D|-------------------------------------------------------------------------------------|
A|-------------------------------------------------------------------------------------|
E|-------------------------------------------------------------------------------------|

e|-6-6--7-7--10---------------------------------------------------------------------|
B|-7-7--8-8--10---------------------------------------------------------------------|
G|-6-6--7-7------9-x----------------------------------------------------------------|
D|---------------9-x----------------------------------------------------------------|
A|---------------7-x----------------------------------------------------------------|
E|----------------------------------------------------------------------------------|

And This is the Riff it's played with a bit throughout the song
e|------------------------------------------------------------------------------------|
B|------------------------------------------------------------------------------------|
G|-----------7-7----------------------------------------------------------------------|
D|-4-4--7-7--7-7----------------------------------------------------------------------|
A|-4-4--7-7--5-5--9-7-9---------------------------------------------------------------|
E|-2-2--5-5-------7-5-7---------------------------------------------------------------|

e|-------------------------------------------------------------------------------|
B|-------------------------------------------------------------------------------|
G|-----------7-7-----------------------------------------------------------------|
D|-4-4--7-7--7-7-----------------------------------------------------------------|
A|-4-4--7-7--5-5--9-7-9----------------------------------------------------------|
E|-2-2--5-5-------7-5-7----------------------------------------------------------|

e|---------------------------------------------------------------------------------------|
B|---------------------------------------------------------------------------------------|
G|-----------7-7-------------------------------------------------------------------------|
D|-4-4--7-7--7-7--9-9--4-4--7-7--9-9-9-9-9-9-9-9-----------------------------------------|
A|-4-4--7-7--5-5--9-9--4-4--7-7--7-7-7-7-7-7-7-7-----------------------------------------|
E|-2-2--5-5-------7-7--2-2--5-5----------------------------------------------------------|

Over the verses the lead does a whole bunch of these ones sliding up to the root.
e|---------------------------------------------------------------------------------|
B|---------------------------------------------------------------------------------|
G|-9/11----------------------------------------------------------------------------|
D|-------------or some times 7/9---------------------------------------------------|
A|-7/9-----------------------------------------------------------------------------|
E|---------------------------------------------------------------------------------|

And the rythm palm mutes the riff
e|-------------------------------------------------------------------------------------|
B|-------------------------------------------------------------------------------------|
G|------------------7-7-7-7------------------------------------------------------------|
D|-4-4-4-4--7-7-7-7-5-5-5-5------------------------------------------------------------|
A|-4-4-4-4--7-7-7-7-5-5-5-5------------------------------------------------------------|
E|-2-2-2-2--5-5-5-5--------------------------------------------------------------------|


Then for the Chorus you strum.....
e|--------------------------------------------------------------------------------|
B|--------------------------------------------------------------------------------|
G|-7-----9------------------------------------------------------------------------|
D|-7--7--9------------------------------------------------------------------------|
A|-5--7--7------------------------------------------------------------------------|
E|----5---------------------------------------------------------------------------|

e|--------------------------------------------------------------------------------|
B|--------------------------------------------------------------------------------|
G|-7-----9------------------------------------------------------------------------|
D|-7--9--9------------------------------------------------------------------------|
A|-5--9--7------------------------------------------------------------------------|
E|----7---------------------------------------------------------------------------|


Solo i may be gettin a little lazy now lazy :S
e|-2-------5p4p2---------------------14-------------------------------------------------|
B|-2--x16-------5p3p2--2-------------14-x16----/14-/17-/19-19-19------------------------|
G|-------------------4--4-2-4b6-4p2-----------------------------------------------------|
D|----------------------------------4---------------------------------------------------|
A|--------------------------------------------------------------------------------------|
E|--------------------------------------------------------------------------------------|


e|-14-----------------------------|
B|-14-x about 16--------14-17-19--|
G|--------------------------------|
D|--------------------------------|
A|--------------------------------|
E|--------------------------------|
Woooooo!
************************************

| /   slide up
| \   slide down
| h   hammer-on
| p   pull-off
| ~   vibrato
| +   harmonic
| x   Mute note
| b   Bend
| pb  Pre-bend
| br  Bend release
| pbr Pre-bend release
| brb Bend release bend

************************************
Tap to rate this tab
# A B C D E F G H I J K L M N O P Q R S T U V W X Y Z