Song name
# A B C D E F G H I J K L M N O P Q R S T U V W X Y Z

Voicst - Everyday I Work On The Road tab

--------------------------------------------------------------------------
			Everyday I work on the road - Voicst
--------------------------------------------------------------------------
Tabbed by:deHufter
Email:kurtkill@hotmail.com

Tuning:standard

Verse 1st time:
e|--4--4-4-4-4----------4--4-4-4---2--2-2-2---4--4-4-4----------------------|
B|--4--4-4-4-4----------4--4-4-4---2--2-2-2---6--6-6-6----------------------|
G|--4--4-4-4-4--3times--4--4-4-4---3--3-3-3---6--6-6-6----------------------|
D|--6--6-6-6-6----------4--4-4-4---4--4-4-4---6--6-6-6----------------------|
A|--6--6-6-6-6----------6--6-6-6---4--4-4-4---4--4-4-4----------------------|
E|--4--4-4-4-4----------4--4-4-4---2--2-2-2---------------------------------|

Tutututuu...
e|--------------------------------------------------------------------------|
B|---6-7-9-7-6~-------------------------------------------------------------|
G|--------------------------------------------------------------------------|
D|--------------------------------------------------------------------------|
A|--------------------------------------------------------------------------|
E|--------------------------------------------------------------------------|

Verse 2nd time:
e|---4--4-4-4--4----------2--2-2-2--2---4--4-4-4--4-------------------------|
B|---4--4-4-4--4----------2--2-2-2--2---6--6-6-6--6-------------------------|
G|---4--4-4-4--4--2times--3--3-3-3--3---6--6-6-6--6-------------------------|
D|---6--6-6-6--6----------4--4-4-4--4---6--6-6-6--6-------------------------|
A|---6--6-6-6--6----------4--4-4-4--4---4--4-4-4--4-------------------------|
E|---4--4-4-4--4----------2--2-2-2--2---------------------------------------|

Chorus:
e|--7---7--4--7-----7---5--4---2-4--2-4--2-4--------------------------------|
B|--7---9--4--9-----7---5--4---2-4--2-4--2-4--------------------------------|
G|--8---9--4--9-----8---6--4---3-4--3-4--3-4--------------------------------|
D|--9---9--6--9-----9---7--6---4-6--4-6--4-6--------------------------------|
A|--9---7--6--7-----9---7--6---4-6--4-6--4-6--------------------------------|
E|--7------4--------7---5--4---2/4--2/4--2/4--------------------------------|

Bridge:
e|--4--6--7--9--11-13--14--16-----------------------------------------------|
B|--x--x--x--x--x--x---x---x------------------------------------------------|
G|--1--3--4--6--8--10--11--13-----------------------------------------------|
D|-------------------------------8b9r8--8b9r8--6~---------------------------|
A|------------------------------------------------8b9r8--8b8r8--6~----------|
E|--------------------------------------------------------------------------|

e|--------------------------------------------------------------------------|
B|---4-------------4----------4---------------------------------------------|
G|-----4--6^1/4-----4-6^1/4----4-6^1/4--------------------------------------|
D|------6-----------------------------8b9r8-8b9r8--6~-10b11r10-10b11r10-8~--|
A|--------------------------------------------------------------------------|
E|-4-------------4----------4-----------------------------------------------|

e|--4--6--7--9--11-13--14--16-----------------------------------------------|
B|--x--x--x--x--x--x---x---x------------------------------------------------|
G|--1--3--4--6--8--10--11--13-----------------------------------------------|
D|-----------------------------8b9r8--8b9r8--6~-----------------------------|
A|----------------------------------------------8b9r8--8b8r8--6~-\4~-\2~----|
E|-----------------------------------------------------------------------4~-|

Intermezzo:
e|--------------------------------------------------------------------------|
B|-------4---7---7-5-4----------4~--4-5-4-5-4~------------------------------|
G|-----4---4-----------6-4----4---------------------------------------------|
D|---6-----------------------------------------2nd-time-blend-into-verse----|
A|-------------------------2------------------------------------------------|
E|--4-----------------------------------------------------------------------|

e|--------------------------------------------------------------------------|
B|-------4---7---7-5-4------5^1/4-5-5^1/4-5-5-4-5-7-4~----------------------|
G|-----4---4-----------6-4--------------------------------------------------|
D|---6----------------------------------------------------------------------|
A|--------------------------7-----------------------------------------------|
E|--4-----------------------------------------------------------------------|

Then repeat verse and chorus.
Tap to rate this tab
# A B C D E F G H I J K L M N O P Q R S T U V W X Y Z