Song name
# A B C D E F G H I J K L M N O P Q R S T U V W X Y Z

Voicst - Dazzled Kids tab

------------------------------------------------------------------------
			     Dazzled Kids - Voicst
------------------------------------------------------------------------
Tabbed by:deHufter
Email:kurtkill@hotmail.com

Tuning:standard

Intro:
e|---4--2--4-------------------------------------------------------------|
B|---4--2--6-------------------------------------------------------------|
G|---5--3--6-------------------------------------------------------------|
D|---6--4--6-------------------------------------------------------------|
A|---6--4--4-------------------------------------------------------------|
E|---4--2----------------------------------------------------------------|

Staccato guitar:
e|-----------------------------------------------------------------------|
B|-----------------------------------------------------------------------|
G|-----------------------------------------------------------------------|
D|-----------------------------------------------6-6-6-6-6-6-6-6-6-6-----|
A|-----------------------------------------------------------------------|
E|--4-4-4-4-4-4-4-----4--4----4-4-4-4-4-4-4-etc.-------------------------|

Verse:
e|---4--2--4-----------------0--2----------------------------------------|
B|---4--2--6-----------------0--2----------------------------------------|
G|---5--3--6-----------------1--3----------------------------------------|
D|---6--4--6--2-times-then:--2--4----------------------------------------|
A|---6--4--4-----------------2--4----------------------------------------|
E|---4--2--------------------0--2----------------------------------------|

Chorus:
e|---4---0---2-----------------------------------------------------------|
B|---4---0---2-----------------------------------------------------------|
G|---5---1---3-----------------------------------------------------------|
D|---6---2---4-----------------------------------------------------------|
A|---6---2---4-----------------------------------------------------------|
E|---4---0---2-----------------------------------------------------------|

Solo:
e|-----------------------------------------------------------------------|
B|-----------------------------------------------------------------------|
G|-----------------------------------------------------------------------|
D|----------4-6--6-6-6-6-6-------6-6-6^1/4-5-----------------------------|
A|------4-6----------------7---7-------------6-4-------------------------|
E|--4-7------------------------------------------7-4---------------------|

e|-----------------------------------------------------------------------|
B|-----------------------------------------------------------------------|
G|-----------------------------------------------------------------------|
D|----------4-6--6-6-6-6-6-------6-6-6^1/4-5---5-6-6\--------------------|
A|------4-6----------------7---7-------------6-----6\--------------------|
E|--4-7--------------------------------------------4\--------------------|
Tap to rate this tab
# A B C D E F G H I J K L M N O P Q R S T U V W X Y Z