Song name
# A B C D E F G H I J K L M N O P Q R S T U V W X Y Z

Voicst - Detail 3000 tab

Highlighted       Show chord diagrams
-------------------------------------------------------------------------------
			     Detail 3000 - Voicst
-------------------------------------------------------------------------------
Tabbed by:deHufter
Email:kurtkill@hotmail.com

Tuning:standard

Chords used:

    B  G#m7 F# Emaj9  G#m C#m
e|--2-------2--4-------4---4-------------------------------------------------------------|
B|--4---4---2--4-------4---5-------------------------------------------------------------|
G|--4---4---3--4-------4---6-------------------------------------------------------------|
D|--4---4---4--4-------6---6-------------------------------------------------------------|
A|--2-------4--x-------6---4-------------------------------------------------------------|
E|------4---2--0-------4-----------------------------------------------------------------|

B                       G#m7
We pick things up quite easy

F#                           Emaj9
I clean my phrases so you’ll stay

B                      G#m7
Sticky stories you are leading

F#             Emaj9
Kindly to next phase


G#m     F#
Yeah whatever you have been through

C#m
Don't tell me everything today

G#m      F#
First we were in a conflict

C#m
Now we are in a phase

G#m      F#
That is gently moving to

C#m
Making room and finding space

G#m      F#
To distinguish love from flirt

C#m                              B
You got to check out where's the dirt

And so on...
Tap to rate this tab
 
# A B C D E F G H I J K L M N O P Q R S T U V W X Y Z