Song name
# A B C D E F G H I J K L M N O P Q R S T U V W X Y Z

Voicst - American College Pop tab

Drop D tune (eBGDAD)

e|-------------------------------|
B|-------------------------------|
G|-------------------------------|
D|11-11--6-6-6--9-9-9--13-13-13--|
A|11-11--6-6-6--9-9-9--13-13-13--|
D|11-11--6-6-6--9-9-9--13-13-13--|

e|----------------------------------|
B|----------------------------------|
G|----------------------------------|
D|11-11-11--6-6-6--9-9-9--13-13-13--|       7x
A|11-11-11--6-6-6--9-9-9--13-13-13--|
D|11-11-11--6-6-6--9-9-9--13-13-13--|


www.voicst.com
Tap to rate this tab
# A B C D E F G H I J K L M N O P Q R S T U V W X Y Z