Song name
# A B C D E F G H I J K L M N O P Q R S T U V W X Y Z

Voicst - Whatever You Want From Life tab

Artist: Voicst
Album: 11-11
Song: Whatever You Want From Life
Tuning: Standard

Hey, just something to note here. The chorus and outro is pretty spot on, but the verse 
while it sounds great, may not be 100%. It's mainly something I done myself, but it goes 
with the song.
This is my first tab, and I'm pretty pleased with it. If you wish to comment me about 
changes or what you think of it or anything, then please do, and have fun with my tab :D

Verse:

e|---------------------------------------------------------------------------|
B|---------------------------------------------------------------------------|
G|---------------------------------------------------------------------------|
D|---------------------------------------------------------------------------|
A|------9--------9--------9-------9----------7--------7---------5-----5------|
E|--7-7---7-7-7-----7-7-7----7--7--------5-5----5-5-5-------3-3---3-3--------|

Chorus chords:

e|---------------------------------------------------------------------------|
B|---------------------------------------------------------------------------|
G|---------------------------------------------------------------------------|
D|---------------------------------------------------------------------------|
A|--7------------5-------------10----------7---------------------------------|
E|--7------------5-------------10----------7---------------------------------|

Outro chords:

e|---------------------------------------------------------------------------|
B|---------------------------------------------------------------------------|
G|---------------------------------------------------------------------------|
D|---------------------------------------------------------------------------|
A|--7-----------12-------------7----------10--------12------10------7--------|
E|--7-----------12-------------7----------10--------12------10------7--------|
Tap to rate this tab
# A B C D E F G H I J K L M N O P Q R S T U V W X Y Z