Guitaretab - guitar tabs
Song name
# A B C D E F G H I J K L M N O P Q R S T U V W X Y Z

Voicst - Acts Of Fire tab

-------------------------------------------------------------------------------
			     Acts of Fire - Voicst
-------------------------------------------------------------------------------
Tabbed by: deHufter
Email:

Tuning: E A D G B e

Verse:

e|-------------------------------------------------------------------------|
B|-------------------------------------------------------------------------|
G|--8- 8- 8- 8- 8- 8- 8- 8- 5- 5- 5- 5- 5- 5- 5- 5-------------------------|
D|-(8)(8)(8)(8)(8)(8)(8)(8)(5)(5)(5)(5)(5)(5)(5)(5)------------------------|
A|--6- 6- 6- 6- 6- 6- 6- 6- 3- 3- 3- 3- 3- 3- 3- 3-------------------------|
E|-------------------------------------------------------------------------|

Chorus:

e|--------------------------------------------------------------------------|
B|--------------------------------------------------------------------------|
G|--------------------------------8--8--6-8^1/2-8--8--8--6-8^1/2 8----------|
D|---8--8--8--8----6--6--6--6-----8--8-------------8--8---------------------|
A|---8--8--8--8----6--6--6--6-----6--6-------------6--6---------------------|
E|---6--6--6--6----4--4--4--4-----------------------------------------------|

Last time play this
e|--------------------------------------------------------------------------|
B|--------------------------------------------------------------------------|
G|--------------------------------8--8--6-8^1/2-8--8------------------------|
D|---8--8--8--8----6--6--6--6-----8-8-------------8-(ring)-----------------|
A|---8--8--8--8----6--6--6--6-----6--6-------------6------------------------|
E|---6--6--6--6----4--4--4--4-----------------------------------------------|

Then verse and the chorus again and then:
[ Tab from: http://www.guitaretab.com/v/voicst/91026.html ]
e|-------------------------------------------------------------------------|
B|-------------------------------------------------------------------------|
G|----- 6-6-----6-6-----6-6------6-6---88888888--1111111111111111----------|
D|----- 6-6-----6-6-----6-6------6-6---88888888--1111111111111111----------|
A|-6-6-----6-6------6-6------6-6-------66666666--9-9-9-9-9-9-9-9-----------|
E|-4-4-----4-4------4-4------4-4-------------------------------------------|

Last time play this at the end:
e|-------------------------------------------------------------------------|
B|-------------------------------------------------------------------------|
G|-------------------------------------------------------------------------|
D|-6-----------------------------------------------------------------------|
A|-6-(ring)----------------------------------------------------------------|
E|-4-----------------------------------------------------------------------|



Then play (modulate) the verse and chorus 3 semitones up:

e|-------------------------------------------------------------------------|
B|-------------------------------------------------------------------------|
G|--1111111111111111-8-8-8-8-8-8-8-8---------------------------------------|
D|--1111111111111111-8-8-8-8-8-8-8-8---------------------------------------|
A|--9-9-9-9-9-9-9-9--6-6-6-6-6-6-6-6---------------------------------------|
E|-------------------------------------------------------------------------|

e|--------------------------------------------------------------------------|
B|--------------------------------------------------------------------------|
G|----------------------------11-11--9-11^1/2-11--11-11-9-11^1/2-11--------|
D|--11-11-11-11--9--9--9--9---11-11---------------11-11---------------------|
A|--11-11-11-11--9--9--9--9-- 9--9----------------9--9----------------------|
E|--9--9--9--9---7--7--7--7-------------------------------------------------|


| /  slide up
| \  slide down
| h  hammer-on
| p  pull-off
| ~  vibrato
| +  harmonic
| x  Mute note
===============================================================================
Related for Acts Of Fire tab