Song name
# A B C D E F G H I J K L M N O P Q R S T U V W X Y Z

Voicst - How To Put It tab

-------------------------------------------------------------------------------
			     How to put it? - Voicst
-------------------------------------------------------------------------------
Tabbed by: deHufter
Email:

Tuning: D A D G B e (Dropped D)
Piano transcribed for the guitar

e|--------------------------------------------------------------------------|
B|------6----6--------8-----------------------------------------------------|
G|------7----7----7---7-----5---5---5---------------------------------------|
D|------7----7----5---5-----7---7---7---------------------------------------|
A|---5 ----5--- 7 --7-------7---7---7----0--2-------------------------------|
D|-----------------------7 ---7---7-----------------------------------------|

e|--------------------------------------------------------------------------|
B|------6----6--------8-----------------------------------------------------|
G|------7----7----7---7-----5---5---5---------------------------------------|
D|------7----7----5---5-----7---7---7---------------------------------------|
A|---5 ----5--- 7 --7-------7---7---7---------------------------------------|
D|-----------------------7 ---7---7------7--5-------------------------------|

e|-------------------------------------------------------------------------|
B|-------------------------------------------------------------------------|
G|----2---2----7---7----5---5---4---4--------------------------------------|
D|----3---3----7---7----7---7---5---5--------------------------------------|
A|----3---3----7---7----7---7---5---5--------------------------------------|
D|--3---3----0---0----7---7---5---5----------------------------------------|

e|-------------------------------------------------------------------------|
B|-------------------------------------------------------------------------|
G|----2---2----7---7----5---5---4---4----5---5---5-------------------------|
D|----3---3----7---7----7---7---5---5----7---7---7-------------------------|
A|----3---3----7---7----7---7---5---5----7---7---7---0--2------------------|
D|--3---3----0---0----7---7---5---5----7---7---7---------------------------|

e|--------------------------------------------------------------------------|
B|------6----6--------8-----------------------------------------------------|
G|------7----7----7---7-----5---5---5---------------------------------------|
D|------7----7----5---5-----7---7---7---------------------------------------|
A|---5 ----5--- 7 --7-------7---7---7---------------------------------------|
D|-----------------------7 ---7---7------7--5-------------------------------|

e|-------------------------------------------------------------------------|
B|-------------------------------------------------------------------------|
G|----2---2---4---4--------------------------------------------------------|
D|----3---3---5---5---7----------------------------------------------------|
A|----3---3---5-------7-(let ring)-----------------------------------------|
D|--3---3---5---5-----7----------------------------------------------------|
Tap to rate this tab
 
# A B C D E F G H I J K L M N O P Q R S T U V W X Y Z