Guitaretab - guitar tabs
Song name
# A B C D E F G H I J K L M N O P Q R S T U V W X Y Z

Voicst - We Are On A Chemical Push tab

-------------------------------------------------------------------------------
			     We are on a chemical push - Voicst
-------------------------------------------------------------------------------
Tabbed by: deHufter
Email: kurtkill@hotmail.com

Tuning: D A D G B e (dropped D)

e|------8h9-----8h9----8h9-------------------------------------------------|
B|-------------------------------------------------------------------------|
G|-------------------------------------------------------------------------|
D|--8-------8-------8-------8--1--3--6-------------------------------------|
A|--8-------8-------8-------8--1--3--6-------------------------------------|
E|--8-------8-------8-------8--1--3--6-------------------------------------|

e|-------------------------------------------------------------------------|
B|-------------------------------------------------------------------------|
G|-------------------------------------------------------------------------|
D|----------------------------------3-5-5------3-5-5-5-5-------------------|
A|------6-8-8------6-8-8-8-8----3-3--------3-3-----------------------------|
E|--8-8--------8-8---------------------------------------------------------|
[ Tab from: http://www.guitaretab.com/v/voicst/91056.html ]
e|-------------------------------------------------------------------------|
B|-------------------------------------------------------------------------|
G|-------------------------------------------------------------------------|
D|-------------------------------------------------------------------------|
A|------6-8-8\4------6-8-8-8-8------3-5-5-----3-5-5-5-5--------------------|
E|--8-8----------8-8------------3-3-------3-3------------------------------|

e|-------------------------------------------------------------------------|
B|-------10------9---------------------------------------------------------|
G|-------------------------------------------------------------------------|
D|-------------------------------------------------------------------------|
A|---/9------8-------------------------------------------------------------|
E|-------------------------------------------------------------------------|

e|-------------------------------------------------------------------------|
B|-------------------------------------------------------------------------|
G|-------------------------------------------------------------------------|
D|---8888888888888888--44444444--11111111-----8-----------4----------------|
A|---8888888888888888--44444444--11111111-3--8(let ring)-4(let ring)------|
E|---8888888888888888--44444444--11111111-----8-----------4----------------|

The solo:
e|--------------------------------------------------------------------------|
B|--------------------------------------------------------------------------|
G|--------------------------------------------------------------------------|
D|--------------------------------------6-6-8---6-6-8-----------------------|
A|-----8-8-8\3-2-------9-9-9\4---------------------------------------------|
E|--8-8------------- 4-4----------------------------------------------------|


| /  slide up
| \  slide down
| h  hammer-on
| p  pull-off
| ~  vibrato
| +  harmonic
| x  Mute note
Related for We Are On A Chemical Push tab