Guitaretab - guitar tabs
Song name
# A B C D E F G H I J K L M N O P Q R S T U V W X Y Z

Voicst - Sticky Plans tab

-------------------------------------------------------------------------------
			     Sticky Plans - Voicst
-------------------------------------------------------------------------------
Tabbed by: deHufter
Email:

Tuning: D A D G B e (dropped D)

e|-------------------------------------------------------------------------|
B|-------------------------------------------------------------------------|
G|---------------------13-13-13--------------------------------------------|
D|----------11-11-11---15-15-15---1113p11-13p11---------------------------|
A|--13-13---9--9--9----16-16-16--------------------------------------------|
D|--13-13------------------------------------------------------------------|

e|-------------------------------------------------------------------------|
B|-------------------------------------------------------------------------|
G|--8-8-8-8----------------------------------------------------------------|
D|--8-8-8-8--8-8-8-8--11-11-11-11--6-6-6-6---------------------------------|
A|--6-6-6-6--8-8-8-8--11-11-11-11--6-6-6-6-2------------------------------|
D|-----------8-8-8-8--11-11-11-11--6-6-6-6---------------------------------|

The section below is very noisy, these are the basic chords, but he throws a lot of 
strings through these chords
[ Tab from: http://www.guitaretab.com/v/voicst/91059.html ]
e|--------------------------------------------------------------------------|
B|--------------------------------------------------------------------------|
G|--------------------------------------------------------------------------|
D|--1-1--4-4--6-6-6-6-6-6-6-6-----------------------------------------------|
A|--1-1--4-4--6-6-6-6-6-6-6-6-3-------------------------------------------|
D|--1-1--4-4--6-6-6-6-6-6-6-6-----------------------------------------------|

Then he plays a promiscuous chord again, some kind of Dmaj7 I presume:

e|--------------------------------------------------------------------------|
B|--------------------------------------------------------------------------|
G|--6-6-6--8----------------------------------------------------------------|
D|--4-4-4--8-(let ring)-----------------------------------------------------|
A|--5-5-5--6----------------------------------------------------------------|
D|--------------------------------------------------------------------------|

e|-------------------------------------------------------------------------|
B|-------------------------------------------------------------------------|
G|-15----------------15----------------------------------------------------|
D|-----11h1313/15-------11h13--15-----------------------------------------|
A|-------------------------------------------------------------------------|
D|-------------------------------------------------------------------------|

After this he plays melody of intro + verse muted without high notes and then normal again


| /  slide up
| \  slide down
| h  hammer-on
| p  pull-off
| ~  vibrato
| +  harmonic
| x  Mute note
Related for Sticky Plans tab