Song name
# A B C D E F G H I J K L M N O P Q R S T U V W X Y Z

Void - War Hero tab

My first tab, not sure if its right, but it sounds ok. So please be kind.

Intro

e------------------|
B------------------|
G-7~---6~---9~-----|
D-7~---6~---9~-----|
A-5~---4~---7~-----|
E------------------|

Chorus

e------------------|
B------------------|
G-9-7-6-7-999------|
D-9-7-6-7-999------|
A-7-5-4-5-777------|
E------------------|

Verse

e----------------------|
B----------------------|
G-66666666-9999-7777---|
D-66666666-9999-7777---|
A-44444444-7777-5555---|
E----------------------|
pm........

Order:

Intro x1
Chorus x1
Verse x4
Chorus x1
Verse x4
Chorus x1
Verse x4
Chorus x1
Tap to rate this tab
 
# A B C D E F G H I J K L M N O P Q R S T U V W X Y Z