Song name
# A B C D E F G H I J K L M N O P Q R S T U V W X Y Z

Void - Organized Sports tab

Standard Tuning

Heavy Distortion

x- dead note
...- palm mute
~- let ring

Intro:

e---------------------|
B---------------------|
G---------------------|
D--999----999----99~--|
A--999----999----99~--|
E--777----777----77~--|

Chorus

e------------------------------------------------------|
B------------------------------------------------------|
G--------77----------7-----------77--------------------|
D--99-977777-55-5-777777-99xxxx77777-5555555577777777--|
A--99-977557-55-5-777577-99xxxx77557-5555555577777777--|
E--77-755--5-33-3-555-55-77xxxx55--5-3333333355555555--|
                                     .................

Verse
e-------------|
B-------------|
G-------------|
D--7799101099-|
A--7799101099-|
E--55778 8 77-|

Outro
e-------------|
B-------------|
G-------------|
D--98765432~--|
A--98765432~--|
E--76543210~--|

Order:
Intro x1
Chorus x1
Verse x4
Chorus x1
Verse x4
Chorus x2
Outro x1
Tap to rate this tab
# A B C D E F G H I J K L M N O P Q R S T U V W X Y Z