Song name
# A B C D E F G H I J K L M N O P Q R S T U V W X Y Z

Void - Face The Nation tab

-------------------------------------------------------------------------------
		     Face The Nation - Void
-------------------------------------------------------------------------------
[For UG:] VoiD Bio: http://www.chemical-crew.tv/artist-void.html

Tabbed by: Meidan Greenberg
Email: Metallic.DreamG@Gmail.com

Tuning: Drop D (DADGBe)

BassLine-Intro/Verse (00:17) [X..]
e|-----------------------|
B|-----------------------|
G|-----------------------|
D|-----------------------|
A|-----------------------|
D|--0x---0x---0x---0x----|

BassLine-Main Riff (03:04) [X2]

e|-----------------------|-----------------------|
B|-----------------------|-----------------------|
G|-----------------------|-----------------------|
D|-----------------------|-----------------------|
A|-----------------------|-----------------------|
D|--0x---0x---0x---0x----|--8x---8x---7x---7x----|

e|-----------------------|-----------------------|
B|-----------------------|-----------------------|
G|-----------------------|-----------------------|
D|-----------------------|-----------------------|
A|-----------------------|-----------------------|
D|--5x---5x---5x---5x----|--5x---5x---5x---5x----|


e|-----------------------|-------------------------|
B|-----------------------|-------------------------|
G|-----------------------|-------------------------|
D|-----------------------|-------------------------|
A|-----------------------|-------------------------|
D|--1x---1x---1x---1x----|--8x---8x---10x---10x----|


e|-----------------------|-----------------------|
B|-----------------------|-----------------------|
G|-----------------------|-----------------------|
D|-----------------------|-----------------------|
A|-----------------------|-----------------------|
D|--0x---0x---0x---0x----|--0x---0x---0x---0x----|

BassLine-Verse (03:46) [X..]

e|-----------------------|
B|-----------------------|
G|-----------------------|
D|-----------------------|
A|-----------------------|
D|--0x---0x---0x---0x----|

GuitarLine-Main Riff (04:50) [X6]

e|-----------------|----------------|
B|-----------------|----------------|
G|-----------------|----------------|
D|x-x-0-x-x-0-x-0--|x-x-8~--x-x-7~--|
A|x-x-0-x-x-0-x-0--|x-x-8~--x-x-7~--|
D|x-x-0-x-x-0-x-0--|x-x-8~--x-x-7~--|

e|-----------------|-----------------|
B|-----------------|-----------------|
G|-----------------|-----------------|
D|x-x-5-x-x-5-x-5--|x-x-5-x-x-5-x-5--|
A|x-x-5-x-x-5-x-5--|x-x-5-x-x-5-x-5--|
D|x-x-5-x-x-5-x-5--|x-x-5-x-x-5-x-5--|

e|-----------------|-----------------|
B|-----------------|-----------------|
G|-----------------|-----------------|
D|x-x-1-x-x-1-x-1--|x-x-8~--x-x-10~--|
A|x-x-1-x-x-1-x-1--|x-x-8~--x-x-10~--|
D|x-x-1-x-x-1-x-1--|x-x-8~--x-x-10~--|

e|-----------------|------------------|
B|-----------------|------------------|
G|-----------------|------------------|
D|x-x-0-x-x-0-x-0--|x-x-0--x-1-1-3-1x-|
A|x-x-0-x-x-0-x-0--|x-x-0--x-1-1-3-1x-|
D|x-x-0-x-x-0-x-0--|x-x-0--x-1-1-3-1x-|

Outro (06:24) [X..]
e|--------------------|--------------------|
B|--------------------|--------------------|
G|--------------------|--------------------|
D|x--x-6--x-x-x-x-6---|x--x-6--x-x-x-x-/3--|
A|x--x-6--x-x-x-x-6---|x--x-6--x-x-x-x-----|
D|x--x-6--x-x-x-x-6---|x--x-6--x-x-x-x-----|
Tap to rate this tab
# A B C D E F G H I J K L M N O P Q R S T U V W X Y Z