Song name
# A B C D E F G H I J K L M N O P Q R S T U V W X Y Z

Voivod - Forgotten In Space tab

---------------------------------------------------------------------------
	              "FORGOTTEN IN SPACE" - Voivod
---------------------------------------------------------------------------

Tabbed by: Greg Frisenda
Email: clanktherobot@yahoo.com

Tuning: Standard E

Riff A - Intro
              pick fast
e|------------15-----13-----12--------------------------------------------|
B|------------17-----15-----13-----12-----13------8-----------------------|
G|-5-4-----------------------------12-----12------9-----------------------|
D|-5-4--2-----------------------------------------------------------------|
A|-3-2--2-----------------------------------------------------------------|
E|------0-----------------------------------------------------------------|

e|------------------------------------|
B|------------------------------------|
G|--6----5---4--5--6--5--3--5-6--3----|
D|--6----5---4--5--6--5--3--5-6--3----|
A|--4----3---2--3--4--3--1--3-4--1----|
E|--4----3---2--3--4--3--1--3-4--1----|

Riff B - 2x
e|------------------------------------------------------------------------|
B|------------------------------------------------------------------------|
G|------------------------------------------------------------------------|
D|-6-6-6-6-6-6-6-6-5-5-5-5-5-5-5-5----------------------------------------|
A|---------------------------------7-7-7-7-7-7-7-7-6-6-6-6-6-6-6-6-4-4-4-4|
E|------------------------------------------------------------------------|

e|-----------------------------------------------------------|
B|-----------------------------------------------------------|
G|-----------------------------------------------------------|
D|-----------------------------------------------------------|
A|-4-4-4-4-3-3-3-3-3-3-3-3-----------------------------------|
E|-------------------------5-5-5-5-5-5-5-5-4-4-4-4-4-4-4-4---|

e|--------------------------------------0-----|
B|--------------------------------------0-----|
G|--------------------------------------------|
D|---------------------------------2----------|
A|---------------------------------2----------|
E|-2-2-2-2-2-2-2-2-1-1-1-1-1-1-1-1-0----------|

Riff C - Verse (with Fills)
e|-------------------------|
B|-------------------------|
G|-------------------------|
D|----6--5-----5-----------|
A|-4--------7-----6--------|
E|-------------------------|

Fill 1 (1st verse) 4x  Fill 2 (do Fill 1 once first)
e|-------------------|----------------------------------------------------|
B|-------------------|----------------------------------------------------|
G|-9--9--9--9--9--9--|-9--9--9--9--9--9--10-9----9-10-9----9-10-9----9----|
D|-11-11-11-11-11-11-|-11-11-11-11-11-11------11--------11--------11------|
A|-------------------|----------------------------------------------------|
E|-------------------|----------------------------------------------------|

                       Fill 3 (2nd Verse)
e|-12-12-12-12-12-12--|---------------------------------------------------|
B|-12-12-12-12-12-12--|---------------------------------------------------|
G|-9--9--9--9--9--9---|-9-9-9-9-9-9-9-9-9-9-9-9-10-9----9-10-9----9-10-9--|
D|-9--9--9--9--9--9---|------------------------------11--------11---------|
A|--------------------|---------------------------------------------------|
E|--------------------|---------------------------------------------------|

e|------------------------------------------------------------------------|
B|------------------------------------------------------------------------|
G|----9-10-9----9-10-9----9-10-9----9-10-9----9-10-9----9-10-9----9-------|
D|-11--------11--------11--------11--------11--------11--------11---------|
A|------------------------------------------------------------------------|
E|------------------------------------------------------------------------|

Fill 4 (2nd Verse) = Fill 2

Riff D - Chorus
e|------------------------|-----------------------------------------------|
B|------------------------|-----------------------------------------------|
G|------------------------|-----------------------------------------------|
D|-5-----------5---5---5--|5-----------5-5-5-5-5-5-8-----------8---8---8--|
A|-4-4-4-4-4-4-4-4-4-4-4-4|5-----------5-5-5-5-5-5-8-----------8---8---8--|
E|------------------------|3-3-3-3-3-3-3-3-3-3-3-3-6-6-6-6-6-6-6-6-6-6-6-6|

e|-------------------------------------------------|
B|-------------------------------------------------| Repeat from line on
G|-------------------------------------------------| a second time
D|-8-----------8---8---8---5-----------5---5---5---|
A|-7-7-7-7-7-7-7-7-7-7-7-7-6-6-6-6-6-6-6-6-6-6-6-6-|
E|-------------------------------------------------|

Riff E - Bridge         2x                     2x   
e|------------------------|--3-------------------|
B|------------------------|--3-------------------|
G|------6-----3--3--------|--0----6----3--3------|
D|-5----6-----3--3---0----|--0----6----3--3---0--|
A|-5----4-----1--0---0----|--x----4----1--0---0--|
E|-3-----------------2----|--3----4-----------2--|

Repeat Riff B 2x
Repeat Riff C with Fills
Repeat Riff D
Repeat Riff E

Riff F -4x
e|--------------|
B|--------------|
G|-2---2-4-2----|
D|-2---2-4-2----|
A|---3-------3--|
E|--------------|

Riff G                                                                  2x
e|--------------------------------|---------------------------------------|
B|--------------------------------|---------------------------------------|
G|--------------------------------|---------------------------------------|
D|-2-2-2-2-2-2-2-2-2-2-2-2-2-2-2-2|2-2-2-4-4-4-2-4-2-4-2-2-2-4-4-4-1-2-4-1|
A|-3-3-3-3-3-3-3-3-3-3-3-3-3-3-3-3|3-3-3-5-5-5-3-5-3-5-3-3-3-5-5-5-2-3-5-2|
E|------------------------------------------------------------------------|

Riff H - 2x
e|-----------------------------------------|
B|-----------------------------------------|
G|-2-2-2-4-4-4-2-4-2-4-2-2-2-4-4-4-1-2-4-1-|
D|-1-1-1-3-3-3-1-3-1-3-1-1-1-3-3-3-0-1-3-0-|
A|-----------------------------------------|
E|-----------------------------------------|

Riff I
e|---------------------------------------------------------------|
B|---------------------------------------------------------------|
G|-10-9------------------------------------10-9------------------|
D|-10-9------------------------------------10-9------------------|
A|-8--7------------------------------------8--7--2--2-2-2-2--3---|
E|---------1-1-1--1-1-1--1-1-1--1-1-1---1--------0--0-0-0-0--1---|

Riff J
e|------------------------------------------------------------------------|
B|------------------------------------------------------------------------|
G|-4--4-4-4--6--6-6-6--7--7-7-7--3--3-3-3--4--4-4-4--6--6-6-6--7--7-7-7---|
D|-3--3-3-3--5--5-5-5--6--6-6-6--2--2-2-2--3--3-3-3--5--5-5-5--6--6-6-6---|
A|-2--2-2-2--4--4-4-4--5--5-5-5--1--1-1-1--2--2-2-2--4--4-4-4--5--5-5-5---|
E|------------------------------------------------------------------------|

e|------------------------------------------------------------------------|
B|------------------------------------------------------------------------|
G|-10-101010-10-101010-12--12-12-12--13--13-13-13--9--9-9-9--10-101010----|
D|-9--9-9-9--9--9-9-9--11--11-11-11--12--12-12-12--8--8-8-8--9--9-9-9-----|
A|-8--8-8-8--8--8-8-8--10--10-10-10--11--11-11-11--7--7-7-7--8--8-8-8-----|
E|------------------------------------------------------------------------|

e|---------------------------------------------0--0--0--0--0--0--0--0--0--|
B|---------------------------------------------0--0--0--0--0--0--0--0--0--|
G|-12--12-12-12--13--13-13-13--16--16-16-16-16-16-16-16-13-13-13-13-13-13-|
D|-11--11-11-11--12--12-12-12--15--15-15-15-15-15-15-15-12-12-12-12-12-12-|
A|-10--10-10-10--11--11-11-11--14--14-14-14-14-14-14-14-11-11-11-11-11-11-|
E|------------------------------------------------------------------------|

Riff K
e|------------------------------------------------------------------------|
B|------------------------------------------------------------------------|
G|------------------------------------------------------1-----------------|
D|--------------------------1---------------------------1-----------------|
A|-1-3--3-3-3-3-3-3-3-3-3-3-1--1-3--3-3-3-3-3-3-3-3-3-3---1-3--3-3-3-3-3-3|
E|------------------------------------------------------------------------|

e|-------------------|
B|-------------------|
G|---------------4---|
D|-----------1---3---|
A|-3-3-3-3-3-1---4---|
E|-------------------|

Solo - Did Not Transcribe

Riff L - 8X
e|-15-15-15-15---|
B|-16-16-16-16---|
G|---------------|
D|---------------|
A|---------------|
E|---------------|

Riff M - 4x
e|-------------|
B|-------------|
G|-3---3-5-3---|
D|-3---3-5-3---|
A|---4-------4-|
E|-------------|

Riff N - Repeat Sequence 2x
e|------------------|--------------------------|
B|------------------|--------------------------|
G|------------------|--------------------------|
D|-------6-----5----|---2-----1------2-----1---|
A|-5-6-7---7-6---7--|-3---3-2------3---3-2-----|
E|------------------|--------------------------|

Solo - Did Not Transcribe

Repeat First Half of Riff N

End                                                     **
e|------------------------------------------------------------------------|
B|------------------------------------------------------------------------|
G|------------------------------------------------------------------------|
D|-------------------------------------------------2----------------------|
A|---7-----6-----5-----4-----3-----2-----1-----0---2----------------------|
E|-8---8-7---7-6---6-5---5-4---4-3---3-2---2-1---1-0----3-----------------|

** Lay Finger Lightly On String To Achieve Harmonic
Needs To Be Done In The Third Fret Space, But On The Half
Closer To The Headstock...A Different Note Sounds In The
Half Closer To The Guitar Body


| /  slide up
| \  slide down
| h  hammer-on
| p  pull-off
| ~  vibrato
| +  harmonic
| x  Mute note
===========================================================================
Tap to rate this tab
# A B C D E F G H I J K L M N O P Q R S T U V W X Y Z