Song name
# A B C D E F G H I J K L M N O P Q R S T U V W X Y Z

Volbeat - The Human Instrument tab

Sorry no slide guitar tab.

Intro
e--------------------------------------------------------------------------|
b--------------------------------------------------------------------------|
g--------------------------------------------------------------------------|
D--------------------------------------------------------------------------|
A---------2-2-----------2-2---------3-3--------------------------------2-2-|
E-0-0-0-0-0-0-0-0-0-0-0-0-0-0-0-0-0-1-1--------0h1-1-0h1-1-0h1-1-0h1-1-0-0-|
p.m......     .........     .......

Verses
e----------------------------------------------------------------------------|
b----------------------------------------------------------------------------|
g----------------------------------------------------------------------------|
D----------------------------------------------------------------------------|
A-----------------------7-----------3-----------2----------------------------|
E-0-0-3p2p0-0-0-0-3p2p0---0-3p2p0-0---0-3p2p0-0---0-0-0-0-0-0-000000-0-0h1-1-|
                                                              p.m...

Chorus
e---------------------------------------------------------|
b---------------------------------------------------------|
g-------------9-9-9-9-9-9-9-9-9-9-9-9-9-9-9-9-9-9-9-9-9-9-|
D-5-----4-----9-9-9-9-9-9-9-9-9-9-9-9-9-9-9-9-9-9-9-9-9-9-|
A-3-----2-----7-7-7-7-7-7-7-7-7-7-7-7-7-7-7-7-7-7-7-7-7-7-|
E---------------------------------------------------------|

Chorus Fill
e---------------|
b---------------|
g---------------|
D-9\7-7-7\5-5-5-|
A-7\5-5-5\3-3-3-|
E---------------|

Bridge
e---------------|
b---------------|
g---------------|
D---------------|
A---------------| X6
E-0-0-0-0-0-0-0-|
p.m.............

then
e---------------|
b---------------|
g---------------|
D---------------|
A---------------|
E-8-8-8-8-8-8-8-|
p.m.............

e----------------------------------------------------------------------------|
b----------------------------------------------------------------------------|
g----------------------------------------------------------------------------|
D----------------------------------------------------------------------------|
A----------------------------------------------------------------------------|
E-8-8-8-8-8-8-8-8-8-8-8-8-8-8-8-5-5-5-5--5-5-5-5-5-5-5-5-5-5-5-5-7-7-7-7-7-7-|
p.m.........................................................................

Bridge Fill
e--------------------|
b--------------------|
g--------------------|
D--------------------|
A---6---7---7-9-10---|v
E-7---7---7----------|
p.m.  .   .

Play these chords open before last verse
e--------------------|
b--------------------|
g--------------------|
D--------------------|
A-2----10----7-----9-|
E-0----8-----5-----7-|

End with
e------------|
b------------|
g------------|
D------------|
A-2-let ring-
E-0-let ring-
Tap to rate this tab
# A B C D E F G H I J K L M N O P Q R S T U V W X Y Z