Song name
# A B C D E F G H I J K L M N O P Q R S T U V W X Y Z

Volbeat - The Human Instrument tab

Intro
e-0/2---2/5---5/3/2/3-----3/2------2/(10)---2/10~~---10/5-------7-------|
h-----------------------------------------------------------------------|
g-----------------------------------------------------------------------|
d-----------------------------------------------------------------------|
a-----------------------------------------------------------------------|
E-----------------------------------------------------------------------|

e---------------------------------------3--------------------------------|
b----4/6---4----4/6-----4--4------6--------------------------------------|
g----3/5---3----3/5-----3--3---------------------------------------------|
D------------------------------------------------------------------------|
A------------------------------------------------------------------------|
E------------------------------------------------------------------------|

Electric Intro
e--------------------------------------------------------------------------|
b--------------------------------------------------------------------------|
g--------------------------------------------------------------------------|
D---------2-2-----------2-2---------3-3------------------------------------|
A---------2-2-----------2-2---------3-3--------------------------------2-2-| x6
E-0-0-0-0-0-0-0-0-0-0-0-0-0-0-0-0-0-1-1--------0h1-1-0h1-1-0h1-1-0h1-1-0-0-|

(slide solo)  (improvisable)

Verse
e----------------------------------------------------------------------------|
b----------------------------------------------------------------------------|
g----------------------------------------------------------------------------|
D-----------------------2----------------------------------------------------|
A-----------------------------------3-----------2----------------------------|
E-0-0-3p2p0-0-0-0-3p2p0---0-3p2p0-0---0-3p2p0-0---0-0-0-0-0-0-000000-0-0h1-1-|

Verse twice more

Chorus
e-----------------------------------------------------------------------------------|
b-----------------------------------------------------------------------------------|
g-----------------------------------------------------------------------------------|
D-----------------------------------------------------------------------------------|
A---9------8----14-14-14-14-14-14-14-14-14-14-14-14-14-14-14-14-14-14---------------|
E---7------6----12-12-12-12-12-12-12-12-12-12-12-12-12-12-12-12-12-12-12p10/8-10p8/7|

e---------------|
b---------------|
g---------------|
D---------------|
A---9-----8-----|
E---7-----6-----|

Verse

(pause)

Verse x2



Chorus II
e----------------------------------------------------------------------------------|
b----------------------------------------------------------------------------------|
g----------------------------------------------------------------------------------|
D----------------------------------------------------------------------------------|
A---9-----8----14-14-14-14-14-14-14-14-14-14-14-14-14-14-14-14-14-14---------------|x2
E---7-----6----12-12-12-12-12-12-12-12-12-12-12-12-12-12-12-12-12-12-12p10/8-10p8/7|

e---------------|
b---------------|
g---------------|
D---------------|
A---9-----8-----|
E---7-----6-----|

Bridge
e---------------|
b---------------|
g---------------|
D---------------|
A---------------| X6
E-0-0-0-0-0-0-0-|

e---------------|
b---------------|
g---------------|
D---------------|
A---------------|
E-8-8-8-8-8-8-8-|
			       /-------X2-----\
e-------------------------------|---------------|-------------------------|
b-------------------------------|---------------|-------------------------|
g-------------------------------|---------------|-------------------------|
D-------------------------------|---------------|-------------------------|
A-------------------------------|---------------|-------------------------|
E-8-8-8-8-8-8-8-8-8-8-8-8-8-8-8-|-5-5-5-5-5-5-5-|-7-7-7-7-7-7-7-7-7-7-7-7-|

e--------------------|
b--------------------|
g--------------------|
D--------------------|
A---7-----5-7-8\-----|
E------7-------------|

e---------------|
b---------------|
g---------------|
D---------------|
A---------------| X2
E-0-0-0-0-0-0-0-|

e-------------------------------------------------|
b-------------------------------------------------|
g-------------------------------------------------|
D-------------------------------------------------|
A-------------------------------------------------|
E-8-8-8-8-8-8-8-8-8-8-8-8-8-8-8-8-8-8-8-8-8-8-8-8-|




  /------X2-----\
e|---------------|-------------------------|
b|---------------|-------------------------|
g|---------------|-------------------------|
D|---------------|-------------------------|
A|---------------|-------------------------|
E|-5-5-5-5-5-5-5-|-7-7-7-7-7-7-7-7-7-7-7-7-|

e--------------------|
b--------------------|
g--------------------|
D--------------------|
A---7-----5-7-8\-----|
E------7-------------|

Solo  play C major power chords

Verse x3

Chorus II

Bridge

End with E5
e-------|
b-------|
g-------|
D-2-----|
A-2~~~~~|
E-0~~~~~|
Tap to rate this tab
 
# A B C D E F G H I J K L M N O P Q R S T U V W X Y Z