Song name
# A B C D E F G H I J K L M N O P Q R S T U V W X Y Z

Volbeat - Guitar Gangsters And Cadillac Blood tab

Volbeat
               Guitar Gangsters and Cadillac Blood Guitar
||-----------------|-----------------|----------------|-------------------||
||-----------------|-----------------|----------------|-------------------||
||-----------------|-----------------|----------------|-------------------||
||3--5-------------|--5-----5---5----|-----3--5-------|--------5----5---5-||
||3--5-------------|--5-----5---5----|-----3--5-------|--------5----5---5-||
||1--3-------------|--3-----3---3----|-----1--3-------|--------3----3---3-||
||----0-0-0-0-0-0--|----0-0----0--0-0|-0-0-------0-0-0|-0-0-0----0-0--0---||

||-----------------|-----------------|----------------|-------------------||
||-----------------|-----------------|----------------|-------------------||
||-5-3-------------|-3----3--3-------|-3-5------------|-------------------||
||-5-3-------------|-3----3--3-------|-3-5------------|-------------------||
||-3-1-------------|-1----1--1-------|-1-3------------|-------------------||
||------0-0-0-0-0-0|---0-0--0--0-0---|-----0-0-0------|-------------------||

by:Aaron...
Tap to rate this tab
 
# A B C D E F G H I J K L M N O P Q R S T U V W X Y Z