Song name
# A B C D E F G H I J K L M N O P Q R S T U V W X Y Z

Volbeat - A Warriors Call tab

---------------------------------------------------------------------------
			     A Warrior s Call - Volbeat
---------------------------------------------------------------------------
Tabbed by: niggl90

Tuning: Drop D


im not 100 % sure about part 3 ;)

video : http://www.youtube.com/watch?v=UkyLikjmiAo

d|---------------------------------------|
A|---------------------------------------|
F|---------------------------------------|
C|--------------------------4x-----------|
G|-2-2--2-2-2-2-2----2-2-----------------|
D|-0-0--0-0-0-0-0----0-0-----------------|
PM|---------------------|


d|--------------------------------------------------------|
A|--------------------------------------------------------|
F|--------------------------------------------------------|
C|--------------------------------------------------------|
G|-2--2-2--2-2-2-2-2-2-2----2--2-2--2-2-2-2-2-2-2---------|
D|-0--0-0--0-0-0-0-0-0-0----0--0-0--0-0-0-0-0-0-0---------|
PM|----------------------------------------------|


d|--------------------------|----------------------------------|
A|--------------------------|----------------------------------|
F|-----------------------2x-|-------------------------2x-------| 2x
C|--------------------------|----------------------------------|
G|-2--2-2--2-2-2-2-2-2-2----|--3--3-3--3-3-3-3-3-3-3-----------|
D|-0--0-0--0-0-0-0-0-0-0----|--1--1-1--1-1-1-1-1-1-1-----------|
PM|-------------------------------------------------|


d|--------------------------------------------------------|
A|--------------------------------------------------------|
F|--------------------------------------------------------|
C|--------------------------------------------------------|
G|-2--2-2--2-2-2-2-2-2-2----2--2-2--2-2-2-2-2-2-2---------|
D|-0--0-0--0-0-0-0-0-0-0----0--0-0--0-0-0-0-0-0-0---------|
PM|----------------------------------------------|


d|-----------------------------------------|
A|-----------------------------------------|
F|-----------------------------------------|
C|------------------3x---------------------|
G|-2--2-2-2-2-2-2---------2----------------|
D|-0--0-0-0-0-0-0---------0----------------|
PM|   -----------|

Part 1

d|------------------------------------------------------|
A|------------------------------------------------------|
F|------------------------------------------------------|
C|--------------------------3x--------------------------|
G|-2-------------------2-------2------------------------|
D|-0---0-3^p0--0-3^p0--0-------0---0-3^p0--0-3^p0-------|


d|----------------------------------|
A|----------------------------------|
F|----------------------------------|
C|-4-4-4-4-4-4-4-4-4-4-4-4----------|
G|-2-2-2-2-2-2-2-2-2-2-2-2----------|
D|----------------------------------|
PM|-----------------------|


d|----------------------------------------------------|
A|----------------------------------------------------|
F|----------------------------------------------------|
C|----------------------------------------------------| 4x
G|-2-----------2----------2----------2----------------|
D|-0---0-3^p0--0--0-3^p0--0--0-3^p0--0--0-3^p0--------|

Part 2
d|--------------------------------------|
A|--------------------------------------|
F|--------------------------------------|
C|--------------------------------------| 2x
G|-9---7--------------------------------|
D|-7---5---0--0-10-12-10-12\7-3~--------|

Repeat Part 1
Repeat Part 2 3x, then end with	G|-9-7-| 
				                                D|-7-5-|

Part 3
d|--------------------------------------------------------|
A|--------------------------------------------------------|
F|--------------------------------------------------------|
C|-12-----4-4-4-4-4-4-5-5-5-7-7-7-------------------------|
G|-10--2--------------------------10--10/12--5--2---------|
D|-----0---------------------------8---8/10--3--0---------|
PM|      |-----------------------|
 
Guitar 1      
d|--------------------------------------------------------|
A|--------------------------------------------------------|
F|--------------------------------------------------------|
C|--------------------------------------------------------|
G|10------------------5-------------5/9-10----------------|
D|-8------------------3-------------3/7--8----------------|

Guitar 2
d|--------------------------------------------------------|
A|------7/8-8-8/10-10-12~--12\10-10-10\8-8-7/8--5---------|
F|--------------------------------------------------------|
C|--------------------------------------------------------|
G|--------------------------------------------------------|
D|--------------------------------------------------------|

Guitar 1
d|--------------------------------------------------------|
A|--------------------------------------------------------|
F|--------------------------------------------------------|
C|--------------------------------------------------------|
G|10\9---5----12------------------------------------------|
D|-8\7---3----10-------------------------------------------|





Guitar 2
d|--------------------------------------------------------|
A|--8\7----3-----7---17~----------------------------------|
F|--------------------------------------------------------|
C|--------------------------------------------------------|
G|--------------------------------------------------------|
D|--------------------------------------------------------|

Repeat Part 1
Repeat Part 2 3x, then end with	G|-9-7-|
Repeat Part 3 				                 D|-7-5-|


d|------------------------------------------------------|
A|------------------------------------------------------|
F|------------------------------------------------3x----|
C|------------------------------------------------------|
G|-2-------------------2--2-2--2-2--2-2--2-2------------|
D|-0---0-3^p0--0-3^p0--0--0-0--0-0--0-0--0-0------------|
PM|                   |---------------------|


d|-----------------------------------------|
A|-----------------------------------------|
F|-----------------------------------------|
C|------------------3x---------------------|
G|-2--2-2-2-2-2-2---------2----------------|
D|-0--0-0-0-0-0-0---------0----------------|
PM|   -----------|


| \   slide down
| ~   vibrato
| /   slide up


Tap to rate this tab
 
# A B C D E F G H I J K L M N O P Q R S T U V W X Y Z