Song name
# A B C D E F G H I J K L M N O P Q R S T U V W X Y Z

Volbeat - Still Counting tab

Drop D!
Couldn't find any perfect tab on the internet. Here is how I play it:

Intro

Guitar 1:
|-------------------------|----------------------|
|-------------------------|----------------------|
|x--7--x-x-7---7--x-x-7---|7--x-x-7---7--x-x-7---|
|x--7--x-x-7---7--x-x-7---|7--x-x-7---7--x-x-7---|
|x--5--x-x-5---5--x-x-5---|5--x-x-5---5--x-x-5---|
|-------------------------|----------------------|

|--------------------------|----------------------|
|--------------------------|----------------------|
|10--x-x-10---10--x-x-10---|3--x-x-3---2--x-x-2---|
|10--x-x-10---10--x-x-10---|3--x-x-3---2--x-x-2---|
|-8--x-x--8----8--x-x--8---|1--x-x-1---0--x-x-0---|
|--------------------------|----------------------|


Verse 1

Guitar 1:(first hit chord is after the bass of the drum)
|-------------------------|----------------------|
|-------------------------|----------------------|
|---7--x-x-7---7--x-x-7---|7--x-x-7---7--x-x-7---|
|---7--x-x-7---7--x-x-7---|7--x-x-7---7--x-x-7---|
|---5--x-x-5---5--x-x-5---|5--x-x-5---5--x-x-5---|
|-------------------------|----------------------|

|--------------------------|----------------------|
|--------------------------|----------------------|
|10--x-x-10---10--x-x-10---|3--x-x-3---2--x-x-2---|
|10--x-x-10---10--x-x-10---|3--x-x-3---2--x-x-2---|
|-8--x-x--8----8--x-x--8---|1--x-x-1---0--x-x-0---|
|--------------------------|----------------------|   Play 4X


Heavy Intro

Guitar 1:
|--------------------------------|-------------------------|
|--------------------------------|-------------------------|
|--------------------------------|-------------------------|
|0-0-------------0-0-------------|0-0-------------3--3--2--|
|0-0-------------0-0-------------|0-0-------------3--3--2--|
|0-0-0-0-0-0-0-0-0-0-0-0-0-0-0-0-|0-0-0-0-0-0-0-0-3--3--2--|
   

|-------------------------------|--------------------------------|
|-------------------------------|--------------------------------|
|-------------------------------|--------------------------------| Play
|0-0---0-----0---0-0---0-----0--|0-0---0-----0-------------------|  2x
|0-0---0-----0---0-0---0-----0--|0-0---0-----0-------------------|
|0-0-0-0-0-0-0---0-0-0-0-0-0-0--|0-0-0-0-0-0-0--3p0-2p0-1p0-2p0--|
  

|--------------------------------|--------------------------------|
|--------------------------------|--------------------------------|
|--------------------------------|--------------------------------| Play
|----0-----0-----0-----0-----3p0-|----0-----0-----0-----0-----1p0-|  2x
|----0-----0-----0-----0-----3p0-|----0-----0-----0-----0-----1p0-|
|0-0-0-0-0-0-0-0-0-0-0-0-0-0-3p0-|0-0-0-0-0-0-0-0-0-0-0-0-0-0-1p0-|


|----|--------------------|--------------------------|
|----|--------------------|--------------------------|
|----|7-------------------|--------------------------|
|----|7-------5h7--5h7p5--|3------3--------8--8-7----|
|----|5-----5-------------|3------3-3-3-3--8--8-7----|
|0-0-|--------------------|3------3-3-3-3--8--8-7----|
                         


Verse 2

Guitar 1: (guitar 2 plays intro 2X)
|------------------------|-------------------------|
|------------------------|-------------------------|
|------------------------|-------------------------|
|------7-----------7-----|3-----3--------8--8-7----|
|---5-----5\\3//5-----5--|3-----3-3-3-3--8--8-7----|
|------------------------|3-----3-3-3-3--8--8-7----|
                               

|------------------------|-------------------------|
|------------------------|-------------------------|
|------------------------|-------------------------|
|------7-----------7-----|3-----3--------8--8-7----|
|---5-----5\\3//5----5\\3|3-----3-3-3-3--8--8-7----|
|------------------------|3-----3-3-3-3--8--8-7----|
                                 


Chorus 1

Both guitars:
|-------------------------|-------------------------|
|-------------------------|-------------------------|
|-------------------------|-------------------------|
|8--8--8-8-8--8--8--8-8-8-|8--8--8-8-8--8--8--8-8-8-|
|8--8--8-8-8--8--8--8-8-8-|8--8--8-8-8--8--8--8-8-8-|
|8--8--8-8-8--8--8--8-8-8-|8--8--8-8-8--8--8--8-8-8-|

|-----------------------------------|-----------------------------------|
|-----------------------------------|-----------------------------------|
|-3---3---3--3---3---3---3---3---3--|-----------------------------------|
|-3---3---3--3---3---3---3---3---3--|-0---0---0--0---0---0---0---0---0--|
|-3---3---3--3---3---3---3---3---3--|-0---0---0--0---0---0---0---0---0--|
|-----------------------------------|-0---0---0--0---0---0---0---0---0--|

|-------------------------|-------------------------|
|-------------------------|-------------------------|
|-------------------------|-------------------------|
|8--8--8-8-8--8--8--8-8-8-|8--8--8-8-8--8--8--8-8-8-|
|8--8--8-8-8--8--8--8-8-8-|8--8--8-8-8--8--8--8-8-8-|
|8--8--8-8-8--8--8--8-8-8-|8--8--8-8-8--8--8--8-8-8-|

|-----------------------------------|-----------------------------------|
|-----------------------------------|-----------------------------------|
|-3---3---3--3---3---3---3---3---3--|-----------------------------------|
|-3---3---3--3---3---3---3---3---3--|-0---0---0--0---0---0---0---0---0--|
|-3---3---3--3---3---3---3---3---3--|-0---0---0--0---0---0---0---0---0--|
|-----------------------------------|-0---0---0--0---0---0---0---0---0--|


Interlude

|--------------------|--------------------------|
|--------------------|--------------------------|
|7-------------------|--------------------------|
|7-------5h7--5h7p5--|3------3--------8--8-7----|
|5-----5-------------|3------3-3-3-3--8--8-7----|
|--------------------|3------3-3-3-3--8--8-7----|
                         


Verse 3

Guitar 1:(Guitar 2 plays intro 2X)
|------------------------|-------------------------|
|------------------------|-------------------------|
|------------------------|-------------------------|
|------7-----------7-----|3-----3--------8--8-7----|
|---5-----5\\3//5-----5--|3-----3-3-3-3--8--8-7----|
|------------------------|3-----3-3-3-3--8--8-7----|
                               

|------------------------|-------------------------|
|------------------------|-------------------------|
|------------------------|-------------------------|
|------7-----------7-----|3-----3--------8--8-7----|
|---5-----5\\3//5----5\\3|3-----3-3-3-3--8--8-7----|
|------------------------|3-----3-3-3-3--8--8-7----|
                                 


Chorus 2

Both Guitars:
|-------------------------|-------------------------|
|-------------------------|-------------------------|
|-------------------------|-------------------------|
|8--8--8-8-8--8--8--8-8-8-|8--8--8-8-8--8--8--8-8-8-|
|8--8--8-8-8--8--8--8-8-8-|8--8--8-8-8--8--8--8-8-8-|
|8--8--8-8-8--8--8--8-8-8-|8--8--8-8-8--8--8--8-8-8-|

|-----------------------------------|-----------------------------------|
|-----------------------------------|-----------------------------------|
|-3---3---3--3---3---3---3---3---3--|-----------------------------------|
|-3---3---3--3---3---3---3---3---3--|-0---0---0--0---0---0---0---0---0--|
|-3---3---3--3---3---3---3---3---3--|-0---0---0--0---0---0---0---0---0--|
|-----------------------------------|-0---0---0--0---0---0---0---0---0--|


|-------------------------|-------------------------|
|-------------------------|-------------------------|
|-------------------------|-------------------------|
|8--8--8-8-8--8--8--8-8-8-|8--8--8-8-8--8--8--8-8-8-|
|8--8--8-8-8--8--8--8-8-8-|8--8--8-8-8--8--8--8-8-8-|
|8--8--8-8-8--8--8--8-8-8-|8--8--8-8-8--8--8--8-8-8-|

|-----------------------------------|-----------------------------------|
|-----------------------------------|-----------------------------------|
|-3---3---3--3---3---3---3---3---3--|-----------------------------------|
|-3---3---3--3---3---3---3---3---3--|-0---0---0--0---0---0---0---0---0--|
|-3---3---3--3---3---3---3---3---3--|-0---0---0--0---0---0---0---0---0--|
|-----------------------------------|-0---0---0--0---0---0---0---0---0--|


Bridge

Both Guitars:
|-------------------------------|-------------------------|
|-------------------------------|-------------------------|
|-------------------------------|-------------------------|
|0------------------------------|-------------------------|
|0------------------------------|-------------------------|
|0--0-0-0--0-0-0--0-0-0--0-0-0--|0-0-0--0-0-0--0-0-0--0-0-|
  
Guitar 1:(Guitar 2 plays part 1 of the bridge again)
|-------------------------------------------|
|-------------------------------------------|
|-------------------------------------------|
|2/3-3-3--3-3-3/5-5-5--5-5-5/7-7-7--7-7-7/8-|
|-------------------------------------------|
|-------------------------------------------|


Chorus 3

Both Guitars:
|-------------------------|-------------------------|
|-------------------------|-------------------------|
|-------------------------|-------------------------|
|8--8--8-8-8--8--8--8-8-8-|8--8--8-8-8--8--8--8-8-8-|
|8--8--8-8-8--8--8--8-8-8-|8--8--8-8-8--8--8--8-8-8-|
|8--8--8-8-8--8--8--8-8-8-|8--8--8-8-8--8--8--8-8-8-|

|-----------------------------------|-----------------------------------|
|-----------------------------------|-----------------------------------|
|-3---3---3--3---3---3---3---3---3--|-0---0---0--0---0---0---0---0---0--|
|-3---3---3--3---3---3---3---3---3--|-0---0---0--0---0---0---0---0---0--|
|-3---3---3--3---3---3---3---3---3--|-0---0---0--0---0---0---0---0---0--|
|-----------------------------------|-0---0---0--0---0---0---0---0---0--|

|-------------------------|-------------------------|
|-------------------------|-------------------------|
|-------------------------|-------------------------|
|8--8--8-8-8--8--8--8-8-8-|8--8--8-8-8--8--8--8-8-8-|
|8--8--8-8-8--8--8--8-8-8-|8--8--8-8-8--8--8--8-8-8-|
|8--8--8-8-8--8--8--8-8-8-|8--8--8-8-8--8--8--8-8-8-|

|-----------------------------------|-----------------------------------|
|-----------------------------------|-----------------------------------|
|-3---3---3--3---3---3---3---3---3--|-0---0---0--0---0---0---0---0---0--|
|-3---3---3--3---3---3---3---3---3--|-0---0---0--0---0---0---0---0---0--|
|-3---3---3--3---3---3---3---3---3--|-0---0---0--0---0---0---0---0---0--|
|-----------------------------------|-0---0---0--0---0---0---0---0---0--|

|-------------------------|-------------------------|
|-------------------------|-------------------------|
|-------------------------|-------------------------|
|8--8--8-8-8--8--8--8-8-8-|8--8--8-8-8--8--8--8-8-8-|
|8--8--8-8-8--8--8--8-8-8-|8--8--8-8-8--8--8--8-8-8-|
|8--8--8-8-8--8--8--8-8-8-|8--8--8-8-8--8--8--8-8-8-|

|-----------------------------------|-----------------------------------|
|-----------------------------------|-----------------------------------|
|-3---3---3--3---3---3---3---3---3--|-0---0---0--0---0---0---0---0---0--|
|-3---3---3--3---3---3---3---3---3--|-0---0---0--0---0---0---0---0---0--|
|-3---3---3--3---3---3---3---3---3--|-0---0---0--0---0---0---0---0---0--|
|-----------------------------------|-0---0---0--0---0---0---0---0---0--|

|-------------------------|-------------------------|
|-------------------------|-------------------------|
|-------------------------|-------------------------|
|8--8--8-8-8--8--8--8-8-8-|8--8--8-8-8--8--8--8-8-8-|
|8--8--8-8-8--8--8--8-8-8-|8--8--8-8-8--8--8--8-8-8-|
|8--8--8-8-8--8--8--8-8-8-|8--8--8-8-8--8--8--8-8-8-|

|-----------------------------------|-----------------------------------|
|-----------------------------------|-----------------------------------|
|-3---3---3--3---3---3---3---3---3--|-----------------------------------|
|-3---3---3--3---3---3---3---3---3--|-0---0---0--0---0---0---0---0---0--|
|-3---3---3--3---3---3---3---3---3--|-0---0---0--0---0---0---0---0---0--|
|-----------------------------------|-0---0---0--0---0---0---0---0---0--|


Outro

Both Guitars:
|-------------------------------|-------------------------|
|-------------------------------|-------------------------|
|-------------------------------|-------------------------|
|0------------------------------|-------------------------|
|0------------------------------|-------------------------|
|0--0-0-0--0-0-0--0-0-0--0-0-0--|0-0-0--0-0-0--0-0-0--0-0-|
   
Guitar 1:
|-------------------------------------------|
|-------------------------------------------|
|-------------------------------------------| 
|2/3-3-3--3-3-3/5-5-5--5-5-5/7-7-7--7-7-7/8-|
|-------------------------------------------|
|-------------------------------------------|


Guitar 2:

|-------------------------------|-------------------------|
|-------------------------------|-------------------------|
|-------------------------------|-------------------------|
|-------------------------------|-------------------------|
|-------------------------------|-------------------------|
|0--0-0-0--0-0-0--0-0-0--0-0-0--|0-0-0--0-0-0--0-0-0--0-0-|

                                                              Play till end

Guitar 1:

|----------------|----------------|-----------------|----------------|
|----------------|----------------|-----------------|----------------|
|----------------|----------------|-----------------|----------------|
|-----9----------|---9------------|-10--------12--10|--9-------------|
|--7-------7--7--|--------7--8----|------8----------|----------------|
|----------------|----------------|-----------------|----------------|

|----------------|-----------------|------------------|--------------|
|----------------|-----------------|------------------|--------------|
|----------------|-----------------|------------------|--------------|
|------9---------|---9-------------|------------------|--------------|
|---7------7---7-|--------7--------|-7-8-7-8---5--7--8|----7----5----|
|----------------|-----------------|------------------|--------------|



|----------------------|
|----------------------|
|----------------------|
|----------------------|
|----5////7------------|
|----------------------|


Used symbols:
5h7 = hammer on
1p0 = pull off
5//7 = fast slide up
5\\3 = fast slide down
5////7 = slow slide up

I hope you like it
Tap to rate this tab
 
# A B C D E F G H I J K L M N O P Q R S T U V W X Y Z