Song name
# A B C D E F G H I J K L M N O P Q R S T U V W X Y Z

Volbeat - Soulweeper tab

#----------------------------------PLEASE NOTE--------------------------------#
#This file is the author's own work and represents their interpretation of the#
#song. You may only use this file for private study, scholarship, or research.#
#-----------------------------------------------------------------------------#
#-- File created with Instab - http://www.pconline.com/~smcarey/instab.html --#
#-----------------------------------------------------------------------------#

Author/Artist: Volbeat
Title: Soulweeper
Album: The Strength/The Sound/The Songs
Transcribed by: jaymz88
Tuning : D standard

-||---------------------------------------------------------------------------|
-||---------------------------------------------------------------------------|
-||---------------------------------------------------------------------------|
-||--10---------10---9---7----------7---9-------------------------------------|
-||---8----------8---7---5----------5---7---8--------10---------10---------10-|
-||-----------------------------------------6---------8--8-8-8-8-8--8-8-8-8-8-|


------------------------------------------------------------------------------|
------------------------------------------------------------------------------|
------------------------------------------------------------------------------|
------------------------------------------------------------------------------|
--------10------------8---8--10--10b12r10--10--8--7--7h8--5----8--10----------|
-8-8-8-8-8--8-8-8-8-----------------------------------------------------------|


------------------------------------------------------------------------------|
------------------------------------------------------------------------------|
--------------------------------------------------------------------10----10--|
--------------------8---5--7/8--7--5h7----------------------------------------|
-10b12r10---10-8-7----------------------7----7--8--10----10--8--7-------------|
------------------------------------------------------------------------------|


------------------------------------------------------------------------------|
------------------------------------------------------------------------------|
-12-12b14r12-12--10--9--9h10--7---10--12--12b14r12---12--10--9----------------|
-----------------------------------------------------------------8---8--10----|
------------------------------------------------------------------------------|
------------------------------------------------------------------------------|


---------------------------------------------------------------------------|-|
---------------------------------------------------------------------------|-|
---------------------------------------------------------------------------|-|
-10b12r10-10--8--7--7h8---5----5--7--8---7--5------------------------------|-|
-----------------------------------------------7--8------------------------|-|
---------------------------------------------------------------------------|-|

Verse
-||---------------------------------------------------------------------------|
-||---------------------------------------------------------------------------|
-||---------------------------------------------------------------------------|
-||-10-10-10-10-10-10-10-10-10-10-10-10---------------------------------------|
-||--8--8--8--8--8--8--8--8--8--8--8--8--7--7--7--7--7--7--7--7--7--7--7--7---|
-||--------------------------------------5--5--5--5--5--5--5--5--5--5--5--5---|
  PM -  -  -  -  -  -  -  -  -  -  -  -  -  -  -  -  -  -  -  -  -  -  -  -

---------------------------------------------------------------------------|-|
---------------------------------------------------------------------------|-|
---------------------------------------------------------------------------|-|
--7--7--7--7--7--7--7--7--7--7--7--7---------------------------------------|-|
--5--5--5--5--5--5--5--5--5--5--5--5-10-10-10-10-10-10-10-10-10-10-10-10---|-|
--------------------------------------8--8--8--8--8--8--8--8--8--8--8--8---|-|
  -  -  -  -  -  -  -  -  -  -  -  -  -  -  -  -  -  -  -  -  -  -  -  -

Chorus
-||---------------------------------------------------------------------------|
-||---------------------------------------------------------------------------|
-||---------------------------------------------------------------------------|
-||10-10-10-10-10-10-10-10-10-10--9--7--7--7--7--7--7--7--7--7--7--9----------|
-||-8--8--8--8--8--8--8--8--8--8--7--5--5--5--5--5--5--5--5--5--5--7--8--8--8-|
-||-------------------------------------------------------------------6--6--6-|


------------------------------------------------------------------------------|
------------------------------------------------------------------------------|
------------------------------------------------------------------------------|
-------------------------------------------------------------10-10-10-10-10---|
-8--8--8--8--8--8--8--8--8--10-------10-------10--10--10------8--8--8--8--8---|
-6--6--6--6--6--6--6--6--6---8--8--8--8--8--8--8---8---8----------------------|


------------------------------------------------------------------------------|
------------------------------------------------------------------------------|
------------------------------------------------------------------------------|
-10-10-10-10-10--9--7--7--7--7--7--7--7--7--7--7--9---------------------------|
--8--8--8--8--8--7--5--5--5--5--5--5--5--5--5--5--7--8--8--8--8--8--8--8--8---|
-----------------------------------------------------6--6--6--6--6--6--6--6---|


--------------------------------------------------------------|---------------|
--------------------------------------------------------------|---------------|
--------------------------------------------------------------|---------------|
--------------------------------------------------------------|---------------|
-8--8--8--8--10----------10---------10---------10-------------|---8----8--10--|
-6--6--6--6---8--8-8-8-8--8--8-8-8-8-8--8-8-8-8-8---8-8-8-8---|---------------|


------------------------------------------------------------------------------|
------------------------------------------------------------------------------|
------------------------------------------------------------------------------|
-------------------------------------------------------------8-----5--7/-8--7-|
--10b12r10---10--8--7--7h8--5----8--10--10b12r10---10--8--7-------------------|
------------------------------------------------------------------------------|


------------------------------------------------------------------------------|
------------------------------------------------------------------------------|
------------------------------------------------------------------------------|
-5h7--------------------------------------------------------------------------|
------7----7--8--10----10--8--7--8--------------------------------------------|
------------------------------------------------------------------------------|

Verse
-||---------------------------------------------------------------------------|
-||---------------------------------------------------------------------------|
-||---------------------------------------------------------------------------|
-||-10-10-10-10-10-10-10-10-10-10-10-10---------------------------------------|
-||--8--8--8--8--8--8--8--8--8--8--8--8--7--7--7--7--7--7--7--7--7--7--7--7---|
-||--------------------------------------5--5--5--5--5--5--5--5--5--5--5--5---|
  PM -  -  -  -  -  -  -  -  -  -  -  -  -  -  -  -  -  -  -  -  -  -  -  -

---------------------------------------------------------------------------|-|
---------------------------------------------------------------------------|-|
---------------------------------------------------------------------------|-|
--7--7--7--7--7--7--7--7--7--7--7--7---------------------------------------|-|
--5--5--5--5--5--5--5--5--5--5--5--5-10-10-10-10-10-10-10-10-10-10-10-10---|-|
--------------------------------------8--8--8--8--8--8--8--8--8--8--8--8---|-|
  -  -  -  -  -  -  -  -  -  -  -  -  -  -  -  -  -  -  -  -  -  -  -  -

Chorus
-||---------------------------------------------------------------------------|
-||---------------------------------------------------------------------------|
-||---------------------------------------------------------------------------|
-||10-10-10-10-10-10-10-10-10-10--9--7--7--7--7--7--7--7--7--7--7--9----------|
-||-8--8--8--8--8--8--8--8--8--8--7--5--5--5--5--5--5--5--5--5--5--7--8--8--8-|
-||-------------------------------------------------------------------6--6--6-|


------------------------------------------------------------------------------|
------------------------------------------------------------------------------|
------------------------------------------------------------------------------|
-------------------------------------------------------------10-10-10-10-10---|
-8--8--8--8--8--8--8--8--8--10-------10-------10--10--10------8--8--8--8--8---|
-6--6--6--6--6--6--6--6--6---8--8--8--8--8--8--8---8---8----------------------|


------------------------------------------------------------------------------|
------------------------------------------------------------------------------|
------------------------------------------------------------------------------|
-10-10-10-10-10--9--7--7--7--7--7--7--7--7--7--7--9---------------------------|
--8--8--8--8--8--7--5--5--5--5--5--5--5--5--5--5--7--8--8--8--8--8--8--8--8---|
-----------------------------------------------------6--6--6--6--6--6--6--6---|


--------------------------------------------------------------|----------------|
--------------------------------------------------------------|----------------|
--------------------------------------------------------------|----------------|
--------------------------------------------------------------|----------------|
-8--8--8--8--10----------10---------10---------10-------------|----------------|
-6--6--6--6---8--8-8-8-8--8--8-8-8-8-8--8-8-8-8-8---8-8-8-8---|----------------|



-||---------------------------------------------------------------------------|
-||---------------------------------------------------------------------------|
-||---------------------------------------------------------------------------|
-||---------------------------------------------------------------------------|
-||--8--------8--/13--12--10--3----------/8--7--5--8---------8--/13--12--10---|
-||--6------------------------1--------------------6--------------------------|


------------------------------------------------------------------------------|
------------------------------------------------------------------------------|
------------------------------------------------------------------------------|
--------------------------------------------------------------------7--7--7---|
-3---------/8--7--5--8---------8--/13--12--10--3---------/8--7--5---5--5--5---|
-1-------------------6-------------------------1------------------------------|
                                                                  PM-  -  -

---------------------------------------------------------------------------|-|
---------------------------------------------------------------------------|-|
---------------------------------------------------------------------------|-|
-7--7--7--7--7--7--7--7--7-------------------------------------------------|-|
-5--5--5--5--5--5--5--5--5--8--8--8--8--8--8--8--8--8--8--8--8-------------|-|
----------------------------6--6--6--6--6--6--6--6--6--6--6--6-------------|-|
 -  -  -  -  -  -  -  -  -


Chorus
-||---------------------------------------------------------------------------|
-||---------------------------------------------------------------------------|
-||---------------------------------------------------------------------------|
-||10-10-10-10-10-10-10-10-10-10--9--7--7--7--7--7--7--7--7--7--7--9----------|
-||-8--8--8--8--8--8--8--8--8--8--7--5--5--5--5--5--5--5--5--5--5--7--8--8--8-|
-||-------------------------------------------------------------------6--6--6-|


------------------------------------------------------------------------------|
------------------------------------------------------------------------------|
------------------------------------------------------------------------------|
-------------------------------------------------------------10-10-10-10-10---|
-8--8--8--8--8--8--8--8--8--10-------10-------10--10--10------8--8--8--8--8---|
-6--6--6--6--6--6--6--6--6---8--8--8--8--8--8--8---8---8----------------------|


------------------------------------------------------------------------------|
------------------------------------------------------------------------------|
------------------------------------------------------------------------------|
-10-10-10-10-10--9--7--7--7--7--7--7--7--7--7--7--9---------------------------|
--8--8--8--8--8--7--5--5--5--5--5--5--5--5--5--5--7--8--8--8--8--8--8--8--8---|
-----------------------------------------------------6--6--6--6--6--6--6--6---|


--------------------------------------------------------------|----------------|
--------------------------------------------------------------|----------------|
--------------------------------------------------------------|----------------|
--------------------------------------------------------------|----------------|
-8--8--8--8--10-----------------------------------------------|----------------|
-6--6--6--6---8-----------------------------------------------|----------------|



Outro
-||---------------------------------------------------------------------------|
-||---------------------------------------------------------------------------|
-||---------------------------------------------------------------------------|
-||---------------------------------------------------------------------------|
-||---8---8--10--10b12r10----10--8--7--7h8---5-----8--10--10b12r10---10--8--7-|
-||---------------------------------------------------------------------------|


------------------------------------------------------------------------------|
------------------------------------------------------------------------------|
------------------------------------------------------------------------------|
--8---5--7--8---7---5h7---------------------------7-----7--8--10--8--7-----7--|
-------------------------7---7--8--10---10--8--7-----8------------------8-----|
------------------------------------------------------------------------------|


------------------------------------------------------------------------------|
------------------------------------------------------------------------------|
------------------------------------------------------------------------------|
-----------7-----7--8--10--8--7-----7-----------7-----7--8--10--8--7-----7----|
--8--7--8-----8------------------8-----8--7--8-----8------------------8-----8-|
------------------------------------------------------------------------------|


------------------------------------------------------------------------------|
------------------------------------------------------------------------------|
------------------------------------------------------------------------------|
--7--8--5--------5--7--8--7----------1010101010101010101010101010101010101010-|
------------------------------7-------8-8-8-8-8-8-8-8-8-8-8-8-8-8-8-8-8-8-8-8-|
------------------------------------------------------------------------------|


---------------------------------------------------------------------------|-|
---------------------------------------------------------------------------|-|
---------------------------------------------------------------------------|-|
-10101010----------10------------------------------------------------------|-|
--8-8-8-8-------10--8------------------------------------------------------|-|
-----------------8---------------------------------------------------------|-|
Tap to rate this tab
# A B C D E F G H I J K L M N O P Q R S T U V W X Y Z