Song name
# A B C D E F G H I J K L M N O P Q R S T U V W X Y Z

Volbeat - Pool Of Booze tab

-----------------------------------------------------------------------------
                             Pool of Booze - Volbeat
-----------------------------------------------------------------------------
Tabbed by:xxxTH1RT3ENxxx
E-mail: thevolume9@gmail.com

Tuning: Drop D

This is my first tab. please rate and comment:)

e|--------------------------------------------------------------------------|
B|--------------------------------------------------------------------------|
G|--------------------------------------------------------------------------|
D|---------------------------------------------------------X8---------------|
A|--------------------------------------------------------------------------|
D|-00-00-00-00-00-00-00-00-66-66-66-66-3h5-55-55-3h5h6----------------------|

   p.m.--        p.m.--        p.m.--                           p.m.--
e|--------------------------------------------------------------------------|
B|--------------------------------------------------------------------------|
G|--------------------------------------------------------------------------|
D|--------------------------------------------------------------------------|
A|--------0-0-----------0-0-----------0-0----3h5-3h5p3h5p3h5-----------0-0--|
D|-000000-0-0----000000-0-0----000000-0-0-----------------------000000-0-0--|

e|--------------------------------------------------------------------------|
B|--------------------------------------------------------------------------|
G|--------------------------------------------------------------------------|
D|---------------------------------------------------------X4---------------|
A|--------------------------------------------------------------------------|
D|-00-00-00-00-00-00-00-00-66-66-66-66-3h5-55-55-3h5h6----------------------|

   p.m.--        p.m.--        p.m.--                           p.m.--
e|--------------------------------------------------------------------------|
B|--------------------------------------------------------------------------|
G|--------------------------------------------------------------------------|
D|--------------------------------------------------------------------------|
A|--------0-0-----------0-0-----------0-0----3h5-3h5p3h5p3h5-----------0-0--|
D|-000000-0-0----000000-0-0----000000-0-0-----------------------000000-0-0--|

  p.m.-------------        p.m.-----------       p.m.-----------
e|--------------------------------------------------------------------------|
B|--------------------------------------------------------------------------|
G|--------------------------------------------------------------------------|
D|--------------------------------------------------------------------------|
A|-------------------1-1-0-----------------1-1-0-----------------1-1-0------|
D|-0-00000-00000-000-1-1-0-00000-00000-000-1-1-0-00000-00000-000-1-1-0------|

   p.m.-----
e|--------------------------------------------------------------------------|
B|--------------------------------------------------------------------------|
G|--------------------------------------------------------------------------|
D|--------------------------------------------------------------------------|
A|-----------3h5-5-3h5-5-3h5-5-3h5-5----------------------------------------|
D|-00000-000----------------------------------------------------------------|

   p.m.-----------       p.m.-----------       p.m.-----------
e|--------------------------------------------------------------------------|
B|--------------------------------------------------------------------------|
G|--------------------------------------------------------------------------|
D|--------------------------------------------------------------------------|
A|-----------------1-1-0-----------------1-1-0-----------------1-1-0--------|
D|-00000-00000-000-1-1-0-00000-00000-000-1-1-0-00000-00000-000-1-1-0--------|

   p.m.-----
e|--------------------------------------------------------------------------|
B|--------------------------------------------------------------------------|
G|--------------------------------------------------------------------------|
D|--------------------------------------------------------------------------|
A|-----------3h5-5-3h5-5-3h5-5-3h5-5----------------------------------------|
D|-00000-000----------------------------------------------------------------|

e|--------------------------------------------------------------------------|
B|--------------------------------------------------------------------------|
G|--------------------------------------------------------------------------|
D|------------------------------------------X4------------------------------|
A|-------------------------3h5-5-3h5-5--------------------------------------|
D|-0-0h1p0-0-0h1p0-0-0h1p0--------------------------------------------------|

   p.m.--        p.m.--        p.m.--                           p.m.-- 
e|--------------------------------------------------------------------------|
B|--------------------------------------------------------------------------|
G|--------------------------------------------------------------------------|
D|--------------------------------------------------------------------------|
A|--------0-0-----------0-0-----------0-0----3h5-3h5p3h5p3h5-----------0-0--|
D|-000000-0-0----000000-0-0----000000-0-0-----------------------000000-0-0--|

e|--------------------------------------------------------------------------|
B|--------------------------------------------------------------------------|
G|--------------------------------------------------------------------------|
D|---------------------------------------------------------X4---------------|
A|--------------------------------------------------------------------------|
D|-00-00-00-00-00-00-00-00-66-66-66-66-3h5-55-55-3h5h6----------------------|

     p.m.-----------       p.m.-----------       p.m.-----------
e|--------------------------------------------------------------------------|
B|--------------------------------------------------------------------------|
G|--------------------------------------------------------------------------|
D|--------------------------------------------------------------------------|
A|-0-----------------1-1-0-----------------1-1-0-----------------1-1-0------|
D|-0-00000-00000-000-1-1-0-00000-00000-000-1-1-0-00000-00000-000-1-1-0------|

   p.m.-----
e|--------------------------------------------------------------------------|
B|--------------------------------------------------------------------------|
G|--------------------------------------------------------------------------|
D|--------------------------------------------------------------------------|
A|-----------3h5-5-3h5-5-3h5-5-3h5-5-0--------------------------------------|
D|-00000-000-------------------------0--------------------------------------|


END


************************************

| /   slide up
| \   slide down
| h   hammer-on
| p   pull-off
| ~   vibrato
| +   harmonic
| x   Mute note
| b   Bend
| pb  Pre-bend
| br  Bend release
| pbr Pre-bend release
| brb Bend release bend
| p.m. Palm Mute

************************************
Tap to rate this tab
# A B C D E F G H I J K L M N O P Q R S T U V W X Y Z