Song name
# A B C D E F G H I J K L M N O P Q R S T U V W X Y Z

Volbeat - Caroline 1 tab

Caroline #1

Tuning: D G C F A D

Intro/Verse

|------------------------------------------------------|
|------------------------------------------------------|
|---------------------------------------------7--7-----|
|-----------------------------------------7h9-5--5-9-7-|
|-----------------------------------------5h7------7-5-|
|-0-00-00-00-00-00-0-3p0-5p0-0-00-00-00-0--------------|

|----------------------------------------------------|
|----------------------------------------------------|
|----------------------------------------------------|
|------------------------------------------------4-4-|
|-----------------------------------------5-5----2-2-|
|-0-00-00-00-00-00-0-3p0-5p0-0-00-00-00-0-3-3-00-----|
PM                                      -     --

Chorus
|--------------------------------------------------------------|
|--------------------------------------------------------------|
|--------------------------------------------------------------|
|-----------------555555555555-999999999999--------------------|
|-3--2--2-2-2--3--333333333333-777777777777--3--2--2-2-2--5--3-|
|-1--0--0-0-0--1-----------------------------1--0--0-0-0--3--1-|
PM      - - -                                      - - - 

Bridge
|-----------------------------------------------------|
|-----------------------------------------------------|
|-----------------------------------------------------|
|---------------------------------------4-2-4-4h5-4-2-|
|-333333333333333333333333-222222222222---------------|
|-----------------------------------------------------|
PM------------------------ ------------

Gtr1
|---------------------------------------------|
|---------------------------------------------|
|---------------------------------------------|
|-5--5-7-9--4--4-2-4--------------------------|
|-3--3-5-7--2--2-0-2--2-----2-----2-----2-----|
|---------------------0-000-0-000-0-000-0-000-|
PM                      ---   ---   ---   ---

Gtr2
|-------------------------------------------------------------|
|-------------------------------------------------------------|
|----------------------------------7---7-9~--9-7h9p7----------|
|-10~--10-10h12-10-9~--9-7-7h9-9~----9---------------9-7-9-9~-|
|-------------------------------------------------------------|
|-------------------------------------------------------------|
PM                                                     - -

|------------------------------|
|------------------------------|
|---------7-7h9----------------|
|-10~--10-------9~--9-7-7h9-9~-|
|------------------------------|
|------------------------------|

Pre-Verse Fill
|-----------------------------|
|-----------------------------|
|-----------------------------|
|-----------------------------|
|-2------2------2------2----3-|
|-0-0000-0-0000-0-0000-0-00-1-|
PM  ----   ----   ----   --  

End
|----------------|
|----------------|
|----------------|
|----------------|
|-5--3--5--3--2~-|
|-3--1--3--1--0~-|
Tap to rate this tab
# A B C D E F G H I J K L M N O P Q R S T U V W X Y Z