Song name
# A B C D E F G H I J K L M N O P Q R S T U V W X Y Z

Volbeat - Cape Of Our Hero tab

Cape Of Our Hero

Tuning: D G C F A D

Intro Gtr1

|---------------------------------------2------------------|   
|----7---7~--7-8-7-5-5h7-5~--5-3-2--2h3---2-2-2~--3-3p2-3~-|
|-/7---9---------------------------------------------------|
|----------------------------------------------------------|
|----------------------------------------------------------|
|----------------------------------------------------------|

|---------------------------------------------------------------|   
|-/7~--5-3-3h5~--3-2-2h3~--3-5-5h7-5--3h5-3~--3-3-3-5-3--3h5-3~-|
|---------------------------------------------------------------|
|---------------------------------------------------------------|
|---------------------------------------------------------------|
|---------------------------------------------------------------|

Gtr2 

|----------------------|
|----------------------|
|----------------------|
|-7--------------------|
|-5--5-5--7--4-4444444-|
|----3-3--5--2-2222222-|
PM             -------

|---------------------------------------------------------|  
|---------------------------------------------------------|
|---------------------------------------------------------|
|-7-77777-77777-------------------------------------------|
|-5-55555-55555-5-55555-55555-7-77777-77777-4-44444-44444-|
|---------------3-33333-33333-5-55555-55555-2-22222-22222-|

|-----------------------------------|   
|-----------------------------------|
|-----------------------------------|
|-7--7-7----------------------7--77-|
|-5--5-5-7--7-7-9--9-9-5--5-5-5--55-|
|--------5--5-5-7--7-7-3--3-3-------|

Verse

|---------------------------------------------------------------------|
|---------------------------------------------------------------------|
|---------------------------------------------------------------------|
|-7777777777777777----------------------------------------------------|
|-5555555555555555-5555555555555555-2222222222222222-7777777777777777-|
|------------------3333333333333333-0000000000000000-5555555555555555-|
PM---------------- ---------------- ---------------- ----------------

Pre-Chorus

|---------------------|   
|---------------------|
|---------------------|
|---------------------|
|-5-5555555-7-7777777-|
|-3-3333333-5-5555555-|
PM  -------   -------

Chorus Gtr2

|---------------------------------------------------------|  
|---------------------------------------------------------|
|---------------------------------------------------------|
|-7-77777-77777-------------------------------------------|
|-5-55555-55555-5-55555-55555-2-22222-22222-7-77777-77777-|
|---------------3-33333-33333-0-00000-00000-5-55555-55555-|

Gtr1 (clean)

|--------------------------------------------------------------------|   
|---7---7-8-7---7----7---8-7---7----8---10-8---8----7-8-7---7-8-8-7~-|
|-7---7-------7----7---7-----7----7---7------7----9-------9----------|
|--------------------------------------------------------------------|
|--------------------------------------------------------------------|
|--------------------------------------------------------------------|

Bridge Gtr2

|--------------------------------------------|   
|--------------------------------------------|
|--------------------------------------------|
|-----------------------7~-------------------|
|-9~--9\5~--5-2~--7~--7-5~------/9-9~-5h7-4~-|
|-7~--7\3~--3-0~--5~--5-----5h7--------------|

Gtr1 (clean)

|--------------------|-------------|   
|-8-7---------8-7----|------8-7----|
|-----7~--9-7-----7~-|-9-7~-----6~-|
|--------------------|-------------|
|--------------------|-------------|
|--------------------|-------------|

Bridge-Verse

|-------------------------------------------------------------------| 
|-------------------------------------------------------------------|
|-------------------------------------------------------------------|
|-------------------------------------------------------------------|
|-99999999999999999999999999999999-55555555555555555555555555555555-|
|-77777777777777777777777777777777-33333333333333333333333333333333-|

PM-------------------------------- --------------------------------

|------------------------------------------------------------------| 
|------------------------------------------------------------------|
|------------------------------------------------------------------|
|-----------------------------------7777777777777777---------------| 
|-2222222222222222-7777777777777777-5555555555555555-4444444444444-|
|-0000000000000000-5555555555555555------------------2222222222222-|

PM---------------- ---------------- ---------------- -------------

End Gtr2 Gtr1

|------|------|   
|------|-7~~~-|
|------|-7~~~-|
|-7~~~-|------|
|-5~~~-|------|
|------|------|
Tap to rate this tab
# A B C D E F G H I J K L M N O P Q R S T U V W X Y Z