Song name
# A B C D E F G H I J K L M N O P Q R S T U V W X Y Z

Volbeat - Light A Way tab

Timing tabs is difficult please listen to the song for rhythm, and timing.

Intro:
e-----------------------------------------------------------------------------|
B-----------------------------------------------------------------------------|
G-----------------------------------------------------------------------------|
D-3-3-3-3-3-3-3-3-3-3-3-3-3-3-0-3\5-5-5-5-5-5-5-5-5-5-5-5-5-5-5-5-3-5\7-7-7-7-|
A-3-3-3-3-3-3-3-3-3-3-3-3-3-3-0-3\5-5-5-5-5-5-5-5-5-5-5-5-5-5-5-5-3-5\7-7-7-7-|
D-3-3-3-3-3-3-3-3-3-3-3-3-3-3-0-3\5-5-5-5-5-5-5-5-5-5-5-5-5-5-5-5-3-5\7-7-7-7-|
pm* * * * * * * * * * * * * *       * * * * * * * * * * * * * * *       * * *


e-----------------------------------------------------------------------------|
B-----------------------------------------------------------------------------|
G-----------------------------------------------------------------------------|
D-7-7-7-7-7-7-7-7-7-7-7-7/5-0-0-0-0-0-0-0-0-0-5-5-5-5-5-5-5-5\10-10-10-10-10--|
A-7-7-7-7-7-7-7-7-7-7-7-7/5-0-0-0-0-0-0-0-0-0-5-5-5-5-5-5-5-5\10-10-10-10-10--|
D-7-7-7-7-7-7-7-7-7-7-7-7/5-0-0-0-0-0-0-0-0-0-5-5-5-5-5-5-5-5\10-10-10-10-10--|
pm* * * * * * * * * * *       * * * * * * * * * * * * * * * *

Verse:
e-----------------------------------------------------------------------------|
B-----------------------------------------------------------------------------|
G-----------------------------------------------------------------------------|
D-3-3-3-3-3-3-3-3-3-3-3-3-3-3-0-3\5-5-5-5-5-5-5-5-5-5-5-5-5-5-5-5-3-5\7-7-7-7-|
A-3-3-3-3-3-3-3-3-3-3-3-3-3-3-0-3\5-5-5-5-5-5-5-5-5-5-5-5-5-5-5-5-3-5\7-7-7-7-|
D-3-3-3-3-3-3-3-3-3-3-3-3-3-3-0-3\5-5-5-5-5-5-5-5-5-5-5-5-5-5-5-5-3-5\7-7-7-7-|
pm* * * * * * * * * * * * * *       * * * * * * * * * * * * * * *       * * *

e-----------------------------------------------------------------------------|
B-----------------------------------------------------------------------------|
G-----------------------------------------------------------------------------|
D-7-7-7-7-7-7-7-7-7-7-7-7/5-0-0-0-0-0-0-0-0-0-5-5-5-5-5-5-5-5\10-10-10-10-10--|
A-7-7-7-7-7-7-7-7-7-7-7-7/5-0-0-0-0-0-0-0-0-0-5-5-5-5-5-5-5-5\10-10-10-10-10--|
D-7-7-7-7-7-7-7-7-7-7-7-7/5-0-0-0-0-0-0-0-0-0-5-5-5-5-5-5-5-5\10-10-10-10-10--|

e-----------------------------------------------------------------------------|
B-----------------------------------------------------------------------------|
G-----------------------------------------------------------------------------|
D-3-3-3-3-3-3-3-3-3-3-3-3-3-3-0-3\5-5-5-5-5-5-5-5-5-5-5-5-5-5-5-5-3-5\7-7-7-7-|
A-3-3-3-3-3-3-3-3-3-3-3-3-3-3-0-3\5-5-5-5-5-5-5-5-5-5-5-5-5-5-5-5-3-5\7-7-7-7-|
D-3-3-3-3-3-3-3-3-3-3-3-3-3-3-0-3\5-5-5-5-5-5-5-5-5-5-5-5-5-5-5-5-3-5\7-7-7-7-|

e-----------------------------------------------------------------------------|
B-----------------------------------------------------------------------------|
G-----------------------------------------------------------------------------|
D-7-7-7-7-7-7-7-7-7-7-7-7/5-0-0-0-0-0-0-0-0-0-5-5-5-5-5-5-5-5\10-10-10-10-10--|
A-7-7-7-7-7-7-7-7-7-7-7-7/5-0-0-0-0-0-0-0-0-0-5-5-5-5-5-5-5-5\10-10-10-10-10--|
D-7-7-7-7-7-7-7-7-7-7-7-7/5-0-0-0-0-0-0-0-0-0-5-5-5-5-5-5-5-5\10-10-10-10-10--|

Gtr1
Chorus:
e-----------------------------------------------------------------------------|
B-----------------------------------------------------------------------------|
G-----------------------------------------------------------------------------|
D-8-8-8-8-8-8-8-8-8-8-8-8-8-8-8-8-3-3-3-3-3-3-3-3-0-0-0-0-0-0-0-0-8-8-8-8-8-8-|
A-8-8-8-8-8-8-8-8-8-8-8-8-8-8-8-8-3-3-3-3-3-3-3-3-0-0-0-0-0-0-0-0-8-8-8-8-8-8-|
D-8-8-8-8-8-8-8-8-8-8-8-8-8-8-8-8-3-3-3-3-3-3-3-3-0-0-0-0-0-0-0-0-8-8-8-8-8-8-|

e-----------------------------------------------------------------------------|
B-----------------------------------------------------------------------------|
G-----------------------------------------------------------------------------|
D-8-8-8-8-8-8-8-8-8-8-3-3-3-3-3-3-3-3-0-0-0-0-0-0-0-0-5-5-5-5-5-5-5-5-10-10---|
A-8-8-8-8-8-8-8-8-8-8-3-3-3-3-3-3-3-3-0-0-0-0-0-0-0-0-5-5-5-5-5-5-5-5-10-10---|
D-8-8-8-8-8-8-8-8-8-8-3-3-3-3-3-3-3-3-0-0-0-0-0-0-0-0-5-5-5-5-5-5-5-5-10-10---|

e----------------------------------------------------------------------------|
B----------------------------------------------------------------------------|
G----------------------------------------------------------------------------|
D-10-10-10-10-10-10----------------------------------------------------------|
A-10-10-10-10-10-10----------------------------------------------------------|
D-10-10-10-10-10-10----------------------------------------------------------|

Gtr 2
Chorus:
e-----------------------------------------------------------------------------|
B-----------------------------------------------------------------------------|
G-----------------------------------------------------------------------------|
D-8-8-8-8-8-8-8-8-8-8-8-8-8-8-8-8-3-3-3-3-3-3-3-3-0-0-0-0---------8-8-8-8-8-8-|
A-8-8-8-8-8-8-8-8-8-8-8-8-8-8-8-8-3-3-3-3-3-3-3-3-0-0-0-0---1---3-8-8-8-8-8-8-|
D-8-8-8-8-8-8-8-8-8-8-8-8-8-8-8-8-3-3-3-3-3-3-3-3-0-0-0-0---------8-8-8-8-8-8-|

e-----------------------------------------------------------------------------|
B-----------------------------------------------------------------------------|
G-----------------------------------------------------------------------------|
D-8-8-8-8-8-8-8-8-8-8-3-3-3-3-3-3-3-3-0-0-0-0---------5-5-5-5-5-5-5-5-10-10---|
A-8-8-8-8-8-8-8-8-8-8-3-3-3-3-3-3-3-3-0-0-0-0---1---3-5-5-5-5-5-5-5-5-10-10---|
D-8-8-8-8-8-8-8-8-8-8-3-3-3-3-3-3-3-3-0-0-0-0---------5-5-5-5-5-5-5-5-10-10---|

e----------------------------------------------------------------------------|
B----------------------------------------------------------------------------|
G----------------------------------------------------------------------------|
D-10-10-10-10-10-10------3---------------------------------------------------|
A-10-10-10-10-10-10-3\5/33---------------------------------------------------|
D-10-10-10-10-10-10------3---------------------------------------------------|

Verse 2:
e-----------------------------------------------------------------------------|
B-----------------------------------------------------------------------------|
G-----------------------------------------------------------------------------|
D-3-3-3-3-3-3-3-3-3-3-3-3-3-3-0-3\5-5-5-5-5-5-5-5-5-5-5-5-5-5-5-5-3-5\7-7-7-7-|
A-3-3-3-3-3-3-3-3-3-3-3-3-3-3-0-3\5-5-5-5-5-5-5-5-5-5-5-5-5-5-5-5-3-5\7-7-7-7-|
D-3-3-3-3-3-3-3-3-3-3-3-3-3-3-0-3\5-5-5-5-5-5-5-5-5-5-5-5-5-5-5-5-3-5\7-7-7-7-|
pm* * * * * * * * * * * * * *       * * * * * * * * * * * * * * *       * * *


e-----------------------------------------------------------------------------|
B-----------------------------------------------------------------------------|
G-----------------------------------------------------------------------------|
D-7-7-7-7-7-7-7-7-7-7-7-7/5-0-0-0-0-0-0-0-0-0-5-5-5-5-5-5-5-5\10-10-10-10-10--|
A-7-7-7-7-7-7-7-7-7-7-7-7/5-0-0-0-0-0-0-0-0-0-5-5-5-5-5-5-5-5\10-10-10-10-10--|
D-7-7-7-7-7-7-7-7-7-7-7-7/5-0-0-0-0-0-0-0-0-0-5-5-5-5-5-5-5-5\10-10-10-10-10--|
  * * * * * * * * * * *       * * * * * * * * * * * * * * * *

e-----------------------------------------------------------------------------|
B-----------------------------------------------------------------------------|
G-----------------------------------------------------------------------------|
D-3-3-3-3-3-3-3-3-3-3-3-3-3-3-0-3\5-5-5-5-5-5-5-5-5-5-5-5-5-5-5-5-3-5\7-7-7-7-|
A-3-3-3-3-3-3-3-3-3-3-3-3-3-3-0-3\5-5-5-5-5-5-5-5-5-5-5-5-5-5-5-5-3-5\7-7-7-7-|
D-3-3-3-3-3-3-3-3-3-3-3-3-3-3-0-3\5-5-5-5-5-5-5-5-5-5-5-5-5-5-5-5-3-5\7-7-7-7-|
pm* * * * * * * * * * * * * *       * * * * * * * * * * * * * * *       * * *

e-----------------------------------------------------------------------------|
B-----------------------------------------------------------------------------|
G-----------------------------------------------------------------------------|
D-7-7-7-7-7-7-7-7-7-7-7-7/5-0-0-0-0-0-0-0-0-0-5-5-5-5-5-5-5-5\10-10-10-10-10--|
A-7-7-7-7-7-7-7-7-7-7-7-7/5-0-0-0-0-0-0-0-0-0-5-5-5-5-5-5-5-5\10-10-10-10-10--|
D-7-7-7-7-7-7-7-7-7-7-7-7/5-0-0-0-0-0-0-0-0-0-5-5-5-5-5-5-5-5\10-10-10-10-10--|

e-----------------------------------------------------------------------------|
B-----------------------------------------------------------------------------|
G-----------------------------------------------------------------------------|
D-3-3-3-3-3-3-3-3-3-3-3-3-3-3-0-3\5-5-5-5-5-5-5-5-5-5-5-5-5-5-5-5-3-5\7-7-7-7-|
A-3-3-3-3-3-3-3-3-3-3-3-3-3-3-0-3\5-5-5-5-5-5-5-5-5-5-5-5-5-5-5-5-3-5\7-7-7-7-|
D-3-3-3-3-3-3-3-3-3-3-3-3-3-3-0-3\5-5-5-5-5-5-5-5-5-5-5-5-5-5-5-5-3-5\7-7-7-7-|

e-----------------------------------------------------------------------------|
B-----------------------------------------------------------------------------|
G-----------------------------------------------------------------------------|
D-7-7-7-7-7-7-7-7-7-7-7-7/5-0-0-0-0-0-0-0-0-0-5-5-5-5-5-5-5-5\10-10-10-10-10--|
A-7-7-7-7-7-7-7-7-7-7-7-7/5-0-0-0-0-0-0-0-0-0-5-5-5-5-5-5-5-5\10-10-10-10-10--|
D-7-7-7-7-7-7-7-7-7-7-7-7/5-0-0-0-0-0-0-0-0-0-5-5-5-5-5-5-5-5\10-10-10-10-10--|

Gtr1
Chorus:
e-----------------------------------------------------------------------------|
B-----------------------------------------------------------------------------|
G-----------------------------------------------------------------------------|
D-8-8-8-8-8-8-8-8-8-8-8-8-8-8-8-8-3-3-3-3-3-3-3-3-0-0-0-0-0-0-0-0-8-8-8-8-8-8-|
A-8-8-8-8-8-8-8-8-8-8-8-8-8-8-8-8-3-3-3-3-3-3-3-3-0-0-0-0-0-0-0-0-8-8-8-8-8-8-|
D-8-8-8-8-8-8-8-8-8-8-8-8-8-8-8-8-3-3-3-3-3-3-3-3-0-0-0-0-0-0-0-0-8-8-8-8-8-8-|

e-----------------------------------------------------------------------------|
B-----------------------------------------------------------------------------|
G-----------------------------------------------------------------------------|
D-8-8-8-8-8-8-8-8-8-8-3-3-3-3-3-3-3-3-0-0-0-0-0-0-0-0-5-5-5-5-5-5-5-5-10-10---|
A-8-8-8-8-8-8-8-8-8-8-3-3-3-3-3-3-3-3-0-0-0-0-0-0-0-0-5-5-5-5-5-5-5-5-10-10---|
D-8-8-8-8-8-8-8-8-8-8-3-3-3-3-3-3-3-3-0-0-0-0-0-0-0-0-5-5-5-5-5-5-5-5-10-10---|

e----------------------------------------------------------------------------|
B----------------------------------------------------------------------------|
G----------------------------------------------------------------------------|
D-10-10-10-10-10-10----------------------------------------------------------|
A-10-10-10-10-10-10----------------------------------------------------------|
D-10-10-10-10-10-10----------------------------------------------------------|

Gtr 2
Chorus:
e-----------------------------------------------------------------------------|
B-----------------------------------------------------------------------------|
G-----------------------------------------------------------------------------|
D-8-8-8-8-8-8-8-8-8-8-8-8-8-8-8-8-3-3-3-3-3-3-3-3-0-0-0-0---------8-8-8-8-8-8-|
A-8-8-8-8-8-8-8-8-8-8-8-8-8-8-8-8-3-3-3-3-3-3-3-3-0-0-0-0---1---3-8-8-8-8-8-8-|
D-8-8-8-8-8-8-8-8-8-8-8-8-8-8-8-8-3-3-3-3-3-3-3-3-0-0-0-0---------8-8-8-8-8-8-|

e-----------------------------------------------------------------------------|
B-----------------------------------------------------------------------------|
G-----------------------------------------------------------------------------|
D-8-8-8-8-8-8-8-8-8-8-3-3-3-3-3-3-3-3-0-0-0-0---------5-5-5-5-5-5-5-5-10-10---|
A-8-8-8-8-8-8-8-8-8-8-3-3-3-3-3-3-3-3-0-0-0-0---1---3-5-5-5-5-5-5-5-5-10-10---|
D-8-8-8-8-8-8-8-8-8-8-3-3-3-3-3-3-3-3-0-0-0-0---------5-5-5-5-5-5-5-5-10-10---|

e----------------------------------------------------------------------------|
B----------------------------------------------------------------------------|
G----------------------------------------------------------------------------|
D-10-10-10-10-10-10------5---------------------------------------------------|
A-10-10-10-10-10-10-3\5/35---------------------------------------------------|
D-10-10-10-10-10-10------5---------------------------------------------------|

Gtr 1
Bridge(x2):
e----------------------------------------------------------------------------|
B----------------------------------------------------------------------------|
G----------------------------------------------------------------------------|
D-5-5-5-5-5-5-5\7-7-7-7-7-7-7-7-7\8-8-8-8-8-8-8-8-3-3-3-3-3-3-3-3------------|
A-5-5-5-5-5-5-5\7-7-7-7-7-7-7-7-7\8-8-8-8-8-8-8-8-3-3-3-3-3-3-3-3------------|
D-5-5-5-5-5-5-5\7-7-7-7-7-7-7-7-7\8-8-8-8-8-8-8-8-3-3-3-3-3-3-3-3------------|
pm* * * * * * * * * * * * * * * * * * * * * * * * * * * * * * * *

e----------------------------------------------------------------------------|
B----------------------------------------------------------------------------|
G----------------------------------------------------------------------------|
D-5-5-5-5-5-5-5\7-7-7-7-7-7-7-7-7\8-8-8-8-8-8-8-8-10-10-10-10-10-10-10-10----|
A-5-5-5-5-5-5-5\7-7-7-7-7-7-7-7-7\8-8-8-8-8-8-8-8-10-10-10-10-10-10-10-10----|
D-5-5-5-5-5-5-5\7-7-7-7-7-7-7-7-7\8-8-8-8-8-8-8-8-10-10-10-10-10-10-10-10----|
pm* * * * * * * * * * * * * * * * * * * * * * * *

Gtr 2
Bridge:
e----------------------------------------------------------------------------|
B----------------------------------------------------------------------------|
G----------------------------------------------------------------------------|
D-5-5/3\5-7-7/5\7-8^9-3-3\5\7^8/5/3------------------------------------------|
A----------------------------------------------------------------------------|
D----------------------------------------------------------------------------|

e----------------------------------------------------------------------------|
B----------------------------------------------------------------------------|
G----------------------------------------------------------------------------|
D-5-5-5-5-5-5-5\7-7-7-7-7-7-7-7-7\8-8-8-8-8-8-8-8-3-3-3-3-3-3-3-3------------|
A-5-5-5-5-5-5-5\7-7-7-7-7-7-7-7-7\8-8-8-8-8-8-8-8-3-3-3-3-3-3-3-3------------|
D-5-5-5-5-5-5-5\7-7-7-7-7-7-7-7-7\8-8-8-8-8-8-8-8-3-3-3-3-3-3-3-3------------|
pm* * * * * * * * * * * * * * * * * * * * * * * * * * * * * * * *

e----------------------------------------------------------------------------|
B----------------------------------------------------------------------------|
G----------------------------------------------------------------------------|
D-5-5-5-5-5-5-5\7-7-7-7-7-7-7-7-7\8-8-8-8-8-8-8-8-10-10-10-10-10-10-10-10----|
A-5-5-5-5-5-5-5\7-7-7-7-7-7-7-7-7\8-8-8-8-8-8-8-8-10-10-10-10-10-10-10-10----|
D-5-5-5-5-5-5-5\7-7-7-7-7-7-7-7-7\8-8-8-8-8-8-8-8-10-10-10-10-10-10-10-10----|
pm* * * * * * * * * * * * * * * * * * * * * * * *

Chorus
e----------------------------------------------------------------------------|
B----------------------------------------------------------------------------|
G----------------------------------------------------------------------------|
D-8-8-8-8-8-8-8-8-8-8-8-8-8-8-8-8-3-3-3-3-3-3-3-3-0-0-0-0-0-0-0-0------------|
A-8-8-8-8-8-8-8-8-8-8-8-8-8-8-8-8-3-3-3-3-3-3-3-3-0-0-0-0-0-0-0-0------------|
D-8-8-8-8-8-8-8-8-8-8-8-8-8-8-8-8-3-3-3-3-3-3-3-3-0-0-0-0-0-0-0-0------------|

e----------------------------------------------------------------------------|
B----------------------------------------------------------------------------|
G----------------------------------------------------------------------------|
D-8-8-8-8-8-8-8-8-8-8-8-8-8-8-8-8-3-3-3-3-3-3-3-3-0-0-0-0-0-0-0-0------------|
A-8-8-8-8-8-8-8-8-8-8-8-8-8-8-8-8-3-3-3-3-3-3-3-3-0-0-0-0-0-0-0-0------------|
D-8-8-8-8-8-8-8-8-8-8-8-8-8-8-8-8-3-3-3-3-3-3-3-3-0-0-0-0-0-0-0-0------------|

e----------------------------------------------------------------------------|
B----------------------------------------------------------------------------|
G----------------------------------------------------------------------------|
D-8-8-8-8-8-8-8-8-8-8-8-8-8-8-8-8-3-3-3-3-3-3-3-3-0-0-0-0-0-0-0-0------------|
A-8-8-8-8-8-8-8-8-8-8-8-8-8-8-8-8-3-3-3-3-3-3-3-3-0-0-0-0-0-0-0-0------------|
D-8-8-8-8-8-8-8-8-8-8-8-8-8-8-8-8-3-3-3-3-3-3-3-3-0-0-0-0-0-0-0-0------------|

e----------------------------------------------------------------------------|
B----------------------------------------------------------------------------|
G----------------------------------------------------------------------------|
D-8-8-8-8-8-8-8-8-8-8-8-8-8-8-8-8-3-3-3-3-3-3-3-3-0-0-0-0-0-0-0-0------------|
A-8-8-8-8-8-8-8-8-8-8-8-8-8-8-8-8-3-3-3-3-3-3-3-3-0-0-0-0-0-0-0-0------------|
D-8-8-8-8-8-8-8-8-8-8-8-8-8-8-8-8-3-3-3-3-3-3-3-3-0-0-0-0-0-0-0-0------------|

Gtr2
Chorus:
e----------------------------------------------------------------------------|
B----------------------------------------------------------------------------|
G----------------------------------------------------------------------------|
D-8-8-8-8-8-8-8-8-8-8-3-3-3-3-3-3-3-3-0-0-0-0--------------------------------|
A-8-8-8-8-8-8-8-8-8-8-3-3-3-3-3-3-3-3-0-0-0-0---1---3------------------------|
D-8-8-8-8-8-8-8-8-8-8-3-3-3-3-3-3-3-3-0-0-0-0--------------------------------|

e----------------------------------------------------------------------------|
B----------------------------------------------------------------------------|
G----------------------------------------------------------------------------|
D-8-8-8-8-8-8-8-8-8-8-3-3-3-3-3-3-3-3-0-0-0-0--------------------------------|
A-8-8-8-8-8-8-8-8-8-8-3-3-3-3-3-3-3-3-0-0-0-0---1---3------------------------|
D-8-8-8-8-8-8-8-8-8-8-3-3-3-3-3-3-3-3-0-0-0-0--------------------------------|

e----------------------------------------------------------------------------|
B----------------------------------------------------------------------------|
G----------------------------------------------------------------------------|
D-8-8-8-8-8-8-8-8-8-8-3-3-3-3-3-3-3-3-0-0-0-0--------------------------------|
A-8-8-8-8-8-8-8-8-8-8-3-3-3-3-3-3-3-3-0-0-0-0---1---3------------------------|
D-8-8-8-8-8-8-8-8-8-8-3-3-3-3-3-3-3-3-0-0-0-0--------------------------------|

e----------------------------------------------------------------------------|
B----------------------------------------------------------------------------|
G----------------------------------------------------------------------------|
D-8-8-8-8-8-8-8-8-8-8-3-3-3-3-3-3-3-3-0-0-0-0--------------------------------|
A-8-8-8-8-8-8-8-8-8-8-3-3-3-3-3-3-3-3-0-0-0-0---1---3------------------------|
D-8-8-8-8-8-8-8-8-8-8-3-3-3-3-3-3-3-3-0-0-0-0--------------------------------|

Outro:
e----------------------------------------------------------------------------|
B----------------------------------------------------------------------------|
G----------------------------------------------------------------------------|
D-5-5-5-5-5-5-5-5-10-10-10-10-10-10-10-10------3-----------------------------|
A-5-5-5-5-5-5-5-5-10-10-10-10-10-10-10-10--3\5/3-----------------------------|
D-5-5-5-5-5-5-5-5-10-10-10-10-10-10-10-10------3-----------------------------|
Tap to rate this tab
# A B C D E F G H I J K L M N O P Q R S T U V W X Y Z