Song name
# A B C D E F G H I J K L M N O P Q R S T U V W X Y Z

Volbeat - Rebel Angel tab

IF THERE'S ANY MISTAKES, MESSAGE ME BEFORE RATING SO I CAN FIX !

h - hammer on
p - pull of
s - slide
hb - half bend

DROP D TUNING !


INTRO

e|------------------|
G|------------------|
B|--10--------------|  x4
D|--10---------8s7--|
A|---8---------8s7--|
D|-------------8s7--|

VERSE

e|---------------------------|--------------------------|
G|---------------------------|--------------------------|
B|--10-10-10-10-10-10-101010-|---7--7--7--7--7--7-777---|
D|--10-10-10-10-10-10-101010-|---7--7--7--7--7--7-777---|
A|---8--8--8--8--8--8--8-8-8-|---5--5--5--5--5--5-555---|
D|---------------------------|--------------------------|

REPEAT 6 TIMES PALM MUTING FROM THE 3RD TO 6TH, FADE OUT ON LAST BAR BEFORE CHORUS

CHORUS

e|----------------|----------------|----------------|----------------|
B|----------------|----------------|----------------|----------------|
G|----------------|----------------|----------------|----------------|
D|-8--8--8-8-8-8--|-8--8--8-8-8-8--|-8--8--8-8-8-8--|-8--8--8-8-8-8--|
A|-8--8--8-8-8-8--|-8--8--8-8-8-8--|-8--8--8-8-8-8--|-8--8--8-8-8-8--|
D|-8--8--8-8-8-8--|-8--8--8-8-8-8--|-8--8--8-8-8-8--|-8--8--8-8-8-8--|

e|-------------------|-------------------|-------------------|-------------------|
G|-------------------|-------------------|-------------------|-------------------|
B|--10--10-10101010--|--10--10-10101010--|--10--10-10101010--|--10--10-10101010--|
D|--10--10-10101010--|--10--10-10101010--|--10--10-10101010--|--10--10-10101010--|
A|---8---8--8-8-8-8--|---8---8--8-8-8-8--|---8---8--8-8-8-8--|---8---8--8-8-8-8--|
D|-------------------|-------------------|-------------------|-------------------|

REPEAT TWICE AND PLAY
e|------|
B|------|
G|------|
D|--10--|
A|--10--|
D|--10--|  IN THE END WITH THE SAME PATTERN


REPEAT VERSE
REPEAT CHORUS

Solo
e|------------------------------------------------|----------------------------------|
G|------------------------------------------------|----------------------------------|
B|--------7-------------7--------------10---------|--------10---10-12hb-10h12p10-----|
D|----7-----7---7---7-----7---7---10------10--10--|--10h12----12-----------------12--|
A|--5---5---------5---5---------8----8------------|----------------------------------|
D|------------------------------------------------|----------------------------------|

e|------------------------------------------------|----------------------------------|
G|------------------------------------------------|----------------------------------|
B|--------7-------------7--------------10---------|--------10---10-12hb-10h12p10-----|
D|----7-----7---7---7-----7---7---10------10--10--|--10h12----12-----------------12--|
A|--5---5---------5---5---------8----8------------|----------------------------------|
D|------------------------------------------------|----------------------------------|

e|----------------------------------|----------------------------------|
G|----------------------------------|----------------------------------|
B|--------10---10-12hb-10h12p10-----|--------10---10-12hb-10h12p10-----|
D|--10h12----12-----------------12--|--10h12----12-----------------12--|
A|----------------------------------|----------------------------------|
D|----------------------------------|----------------------------------|

e|----------------------------------|----------------------------------|
G|----------------------------------|----------------------------------|
B|---9-9-9-9s10~--10-10p9p7---------|--------10---10-12hb-10h12p10-----|
D|----------------------------------|--10h12----12-----------------12--|
A|----------------------------------|----------------------------------|
D|----------------------------------|----------------------------------|

e|----------------------------------|-------------------------------------------|
G|----------------------------------|-------------------------------------------|
B|--------10---10-12hb-10h12p10-----|--9-9-9-9s10~--10-10p9p7--7s9-9-9-9s10-10--|
D|--10h12----12-----------------12--|-------------------------------------------|
A|----------------------------------|-------------------------------------------|
D|----------------------------------|-------------------------------------------|

(To me, the solo sounds perfect, I just played until it sounded right, if you think 
different message me and I'll change it!)

REPEAT VERSE (all slightly palm muted)
REPEAT CHORUS

Final note in the song at the end of the chorus

e|----|
G|----|
B|----|
D|-10-|
A|-10-|
D|-10-|


If you see any problems message me and I'll sort them out if need be!
Tap to rate this tab
# A B C D E F G H I J K L M N O P Q R S T U V W X Y Z