Song name
# A B C D E F G H I J K L M N O P Q R S T U V W X Y Z

Volbeat - Black Bart tab

Hey guys, this is my tab for Black Bart by Volbeat. No solo yet, sorry!
Please rate and feel free to send corrections! :)

Tuning:
Full Step Down - D,G,C,F,A,D


INTRO:
Guitar 1:
D--------------------------------------------------------------------
A--------------------------------------------------------------------
F--------------------------------------------------------------------
C---7-9~------------------7-9~--979--12-10---------------------------
G-7-------8-10-8-81087--7------------------8-81087-------------------
D--------------------------------------------------------------------
                  .....                       .....
Guitar 2:
D--------------------------------------------------------------------
A--------------------------------------------------------------------
F---9-11~---------------------9-11~--9119--14-12---------------------
C-9-------10-12-10-1012109--9--------------------10-1012109----------
G--------------------------------------------------------------------
D--------------------------------------------------------------------
                    .......                          .......
Guitar 1:
D--------------------------------------------------------------------
A--------------------------------------------------------------------
F--------------------------------------------------------------------
C---7-9~------------------7-9~--979--12-10---------------------------
G-7-------8-10-8-81087--7------------------8-81087---7~--------------
D--------------------------------------------------------------------
                  .....                       .....
Guitar 2:
D--------------------------------------------------------------------
A--------------------------------------------------------------------
F---9-11~---------------------9-11~--9119--14-12---------------------
C-9-------10-12-10-1012109--9--------------------10-1012109---9~-----
G--------------------------------------------------------------------
D--------------------------------------------------------------------
                    .......                          .......
VERSE:
Guitars 1+2:
D--------------------------------------------------------------------
A--------------------------------------------------------------------
F--------------------------------------------------------------------
C------------------------979-----------------------------------------
G-9-9999-99979-9-9999-99-757-----------------------------------------
D-7-7777-77757-7-7777-77---------------------------------------------x2

D--------------------------------------------------------------------
A--------------------------------------------------------------------
F--------------------------------------------------------------------
C------------------------979-----------------------------------------
G-9-9999-99979-9-9999-99-757-----------------------------------------
D-7-7777-77757-7-7777-77---------------------------------------------x2
  A man appeared before Wells Fargo.
  Wells Fargo's stage driver man.

D--------------------------------------------------------------------
A--------------------------------------------------------------------
F--------------------------------------------------------------------
C--------------------------------------------------------------------
G-4-4444-44-------9-9999-9997----------------------------------------
D-2-2222-22-(x6)--7-7777-7775----------------------------------------
  Wearing a long white linen,
  and a dust flour sack over his head.

D--------------------------------------------------------------------
A--------------------------------------------------------------------
F--------------------------------------------------------------------
C------------------------979-----------------------------------------
G-9-9999-99979-9-9999-99-757-----------------------------------------
D-7-7777-77757-7-7777-77---------------------------------------------x2
  Pointed a double barreled shotgun,
  at the driver and forced him to halt

D--------------------------------------------------------------------
A--------------------------------------------------------------------
F--------------------------------------------------------------------
C--------------------------------------------------------------------
G-4-4444-44-------9-9999-9999----------------------------------------
D-2-2222-22-(x6)--7-7777-7777----------------------------------------
  Please throw down your box sir,
  and madame please O don't need your money or pearls.

CHORUS:
Guitar 1:
D--------------------------------------------------------------------
A--------------------------------------------------------------------
F--------------------------------------------------------------------
C--------------------------------------------------------------------
G-7~-9~-7~-9~-5~-7~-4~~----------------------------------------------
D-5~-7~-5~-7~-3~-5~-2~~----------------------------------------------
  They call him Black Bart P08,
  the highway bandit po8try man
  Leaving his poem disappeared
  Like a ghost on his own all on his own.
  The road he owns.

VERSE:
Guitars 1+2:
D--------------------------------------------------------------------
A--------------------------------------------------------------------
F--------------------------------------------------------------------
C------------------------979-----------------------------------------
G-9-9999-99979-9-9999-99-757-----------------------------------------
D-7-7777-77757-7-7777-77---------------------------------------------

D--------------------------------------------------------------------
A--------------------------------------------------------------------
F--------------------------------------------------------------------
C--------------------------------------------------------------------
G-9-9999-99979-9-9999-9997~------------------------------------------
D-7-7777-77757-7-7777-7775~------------------------------------------

D--------------------------------------------------------------------
A--------------------------------------------------------------------
F--------------------------------------------------------------------
C------------------------979-----------------------------------------
G-9-9999-99979-9-9999-99-757-----------------------------------------
D-7-7777-77757-7-7777-77---------------------------------------------x2
  Rise Black Bart rise I'm calling,
  calling your spirit out
D--------------------------------------------------------------------
A--------------------------------------------------------------------
F--------------------------------------------------------------------
C--------------------------------------------------------------------
G-4-4444-44-------9-9999-9997----------------------------------------
D-2-2222-22-(x6)--7-7777-7775----------------------------------------
  Dust off your hat and hatchet,
  there are boxes out there with your name and mark

CHORUS:
Guitar 1:
D--------------------------------------------------------------------
A--------------------------------------------------------------------
F--------------------------------------------------------------------
C--------------------------------------------------------------------
G-7~-9~-7~-9~-5~-7~-4~~----------------------------------------------
D-5~-7~-5~-7~-3~-5~-2~~----------------------------------------------
  The road has been cold and lonely,
  the road has been out of good tales.
  Let's shake up some dust
  we'll be opening the box like before just like before.
  And leave a poem.

INTERLUDE:
Both Guitars:
D--------------------------------------------------------------------
A--------------------------------------------------------------------
F--------------------------------------------------------------------
C--------------------------------------------------------------------
G-7-777-77-7---------------------------------------------------------
D-5-555-55-5---------------------------------------------------------x4
   . ... .. .

Guitar 1:
D--------------------------------------------------------------------
A--------------------------------------------------------------------
F--------------------------------------------------------------------
C--------------------------------------------------------------------
G-7-777-77-7-------9-999-99-9----------------------------------------
D-5-555-55-5-(x4)--7-777-77-7-(x4)-----------------------------------
   . ... .. .       . ... .. .

Guitar 2:
D--------------------------------------------------------------------
A--------------------------------------------------------------------
F|--11-9-11~--11-9-11-14--5-7-5~--5-7-5-7-9-7-11~---------------------|
C--------------------------------------------------------------------
G--------------------------------------------------------------------
D--------------------------------------------------------------------

Guitar 1:
D--------------------------------------------------------------------
A--------------------------------------------------------------------
F--------------------------------------------------------------------
C--------------------------------------------------------------------
G-7-777-77-7-------9-999-99-9----------------------------------------
D-5-555-55-5-(x4)--7-777-77-7-(x4)-----------------------------------
   . ... .. .       . ... .. .

Guitar 2:
D--------------------------------------------------------------------
A--------------------------------------------------------------------
F|--11-9-11~--11-9-11-14--5-7-5~--5-7-5-7-9-7-11~---------------------|
C--------------------------------------------------------------------
G--------------------------------------------------------------------
D--------------------------------------------------------------------

Guitar 3:
D--------------------------------------------------------------------
A--------------------------------------------------------------------
F--------------------------------------------------------------------
C|--9-7-9~---9-7-9--12~-----------------------------------------------
G--------------------------------------------------------------------
D--------------------------------------------------------------------

INTERLUDE 2:
Guitar 1:
D--------------------------------------------------------------------
A--------------------------------------------------------------------
F------9----------------9--------------------------------------------
C------7----------------7--------------------------------------------
G-9~----9~--555555-9~----9~---7---9----------------------------------
D-7~----7~--333333-7~----7~---5---7----------------------------------

Guitar 2:
D-------19----15----------19-----------------------------------------
A---19----19----------19----19--17-----------------------------------
F-16--16----16--19--16--16----16--16---------------------------------
C--------------------------------------------------------------------
G--------------------------------------------------------------------
D--------------------------------------------------------------------

BRIDGE:
Guitar 1:
D--------------------------------------------------------------------
A--------------------------------------------------------------------
F--------------------------------------------------------------------
C-5-555-5-555-5-555-5-555--------------------------------------------
G-3-333-3-333-3-333-3-3335-555-5-555-5-555-5-555---------------------
D------------------------3-333-3-333-3-333-3-333---------------------x4

Guitar 2:
D--------------------------------------------------------------------
A--------------------------------------------------------------------
F--------------------------------------------------------------------
C-5-555-5-555-5-555-5-555------------79777-101210--------------------
G-3-333-3-333-3-333-3-3335-555-5-555---------------------------------
D------------------------3-333-3-333---------------------------------x4
  For honor and for riches.
  I've labored long and hard for the bread.
  But on my corns too long you tread.
  You fine haired sons of bitches.

INTERLUDE 2:
Guitar 1:
D--------------------------------------------------------------------
A--------------------------------------------------------------------
F------9----------------9--------------------------------------------
C------7----------------7--------------------------------------------
G-9~----9~--555555-9~----9~---7---9----------------------------------
D-7~----7~--333333-7~----7~---5---7----------------------------------

Guitar 2:
D-------19----15----------19-----------------------------------------
A---19----19----------19----19--17-----------------------------------
F-16--16----16--19--16--16----16--16---------------------------------
C--------------------------------------------------------------------
G--------------------------------------------------------------------
D--------------------------------------------------------------------

VERSE:
Guitars 1+2:
D--------------------------------------------------------------------
A--------------------------------------------------------------------
F--------------------------------------------------------------------
C------------------------979-----------------------------------------
G-9-9999-99979-9-9999-99-757-----------------------------------------
D-7-7777-77757-7-7777-77---------------------------------------------

D--------------------------------------------------------------------
A--------------------------------------------------------------------
F--------------------------------------------------------------------
C--------------------------------------------------------------------
G-9-9999-99979-9-9999-9997~------------------------------------------
D-7-7777-77757-7-7777-7775~------------------------------------------

D--------------------------------------------------------------------
A--------------------------------------------------------------------
F--------------------------------------------------------------------
C------------------------979-----------------------------------------
G-9-9999-99979-9-9999-99-757-----------------------------------------
D-7-7777-77757-7-7777-77---------------------------------------------x2
  A man appeared before Wells Fargo.
  Wells Fargo's stage driver man.

D--------------------------------------------------------------------
A--------------------------------------------------------------------
F--------------------------------------------------------------------
C--------------------------------------------------------------------
G-4-4444-44-------9-9999-9997----------------------------------------
D-2-2222-22-(x6)--7-7777-7775----------------------------------------
  Wearing a long white linen,
  and a dust flour sack over his head.

CHORUS:
Guitar 1:
D--------------------------------------------------------------------
A--------------------------------------------------------------------
F--------------------------------------------------------------------
C--------------------------------------------------------------------
G-7~-9~-7~-9~-5~-7~-4~~----------------------------------------------
D-5~-7~-5~-7~-3~-5~-2~~----------------------------------------------
  They call him Black Bart P08,
  the highway bandit po8try man
  Leaving his poem disappeared
  Like a ghost on his own all on his own.
  The road he owns.

INTERLUDE:
Both Guitars:
D--------------------------------------------------------------------
A--------------------------------------------------------------------
F--------------------------------------------------------------------
C--------------------------------------------------------------------
G-7-777-77-7---------------------------------------------------------
D-5-555-55-5---------------------------------------------------------x4
   . ... .. .

Guitar 1:
D--------------------------------------------------------------------
A--------------------------------------------------------------------
F--------------------------------------------------------------------
C--------------------------------------------------------------------
G-7-777-77-7-------9-999-99-9----------------------------------------
D-5-555-55-5-(x4)--7-777-77-7-(x4)-----------------------------------
   . ... .. .       . ... .. .

Guitar 2:
D--------------------------------------------------------------------
A--------------------------------------------------------------------
F|--11-9-11~--11-9-11-14--5-7-5~--5-7-5-7-9-7-11~---------------------|
C--------------------------------------------------------------------
G--------------------------------------------------------------------
D--------------------------------------------------------------------

Guitar 1:
D--------------------------------------------------------------------
A--------------------------------------------------------------------
F--------------------------------------------------------------------
C--------------------------------------------------------------------
G-7-777-77-7-------9-999-99-9----------------------------------------
D-5-555-55-5-(x4)--7-777-77-7-(x4)-----------------------------------
   . ... .. .       . ... .. .

Guitar 2:
D--------------------------------------------------------------------
A--------------------------------------------------------------------
F|--11-9-11~--11-9-11-14--5-7-5~--5-7-5-7-9-7-11~---------------------|
C--------------------------------------------------------------------
G--------------------------------------------------------------------
D--------------------------------------------------------------------

Guitar 3:
D--------------------------------------------------------------------
A--------------------------------------------------------------------
F--------------------------------------------------------------------
C|--9-7-9~---9-7-9--12~-----------------------------------------------
G--------------------------------------------------------------------
D--------------------------------------------------------------------

SOLO:
Guitar 1:
D--------------------------------------------------------------------
A--------------------------------------------------------------------
F--------------------------------------------------------------------
C--------------------------------------------------------------------
G-7-777-77-7-------9-999-99-9----------------------------------------
D-5-555-55-5-(x4)--7-777-77-7-(x4)-----------------------------------x2
   . ... .. .       . ... .. .

INTERLUDE 2:
Guitar 1:
D--------------------------------------------------------------------
A--------------------------------------------------------------------
F------9----------------9--------------------------------------------
C------7----------------7--------------------------------------------
G-9~----9~--555555-9~----9~---7---9----------------------------------
D-7~----7~--333333-7~----7~---5---7----------------------------------

Guitar 2:
D-------19----15----------19-----------------------------------------
A---19----19----------19----19--17-----------------------------------
F-16--16----16--19--16--16----16--16---------------------------------
C--------------------------------------------------------------------
G--------------------------------------------------------------------
D--------------------------------------------------------------------

BRIDGE:
Guitar 1:
D--------------------------------------------------------------------
A--------------------------------------------------------------------
F--------------------------------------------------------------------
C-5-555-5-555-5-555-5-555--------------------------------------------
G-3-333-3-333-3-333-3-3335-555-5-555-5-555-5-555---------------------
D------------------------3-333-3-333-3-333-3-333---------------------x4

Guitar 2:
D--------------------------------------------------------------------
A--------------------------------------------------------------------
F--------------------------------------------------------------------
C-5-555-5-555-5-555-5-555------------79777-101210--------------------
G-3-333-3-333-3-333-3-3335-555-5-555---------------------------------
D------------------------3-333-3-333---------------------------------x4
  For honor and for riches.
  I've labored long and hard for the bread.
  But on my corns too long you tread.
  You fine haired sons of bitches.

INTERLUDE 2:
Guitar 1:
D--------------------------------------------------------------------
A--------------------------------------------------------------------
F------9----------------9--------------------------------------------
C------7----------------7--------------------------------------------
G-9~----9~--555555-9~----9~---7---9----------------------------------
D-7~----7~--333333-7~----7~---5---7----------------------------------

Guitar 2:
D-------19----15----------19-----------------------------------------
A---19----19----------19----19--17-----------------------------------
F-16--16----16--19--16--16----16--16---------------------------------
C--------------------------------------------------------------------
G--------------------------------------------------------------------
D--------------------------------------------------------------------x2
Tap to rate this tab
# A B C D E F G H I J K L M N O P Q R S T U V W X Y Z