Song name
# A B C D E F G H I J K L M N O P Q R S T U V W X Y Z

Volbeat - Caroline Leaving tab

Help us improve GuitareTab! Take a short survey!
-------------------------------------------------------------------------------
			     Caroline Leaving (Caroline #2) - Volbeat
-------------------------------------------------------------------------------
Tabbed by: Emil Hiltmar
Email: emil_sej@yahoo.dk

Tuning: Standard D (DGCFAd from low to high)

Listen to the song for rhythm

Intro:

d|-------------------------------|
A|-------------------------------|
F|-------------------------------|
C|--------------------5---7---2--|
G|--------------------5---7---2--|
D|-0-00-00-00-00-00-0-3-0-5-0-0--|
   x xx xx xx xx xx x   x   x

d|-------------------------------|
A|-------------------------------|
F|-------------------------------|
C|-//10101010101010\\------------|
G|-//10101010101010\\------------|
D|-//8-8-8-8-8-8-8-\\------------|


Verse:

d|------------------------------------------|
A|------------------------------------------|
F|------------------------------------------|
C|------------------------------------------|
G|-------------------------------5h7-7------|
D|-00-3p0-0-5p0-00-0-3p0-0-5p0-0-------6-5--|


d|------------------------------------------|
A|------------------------------------------|
F|------------------------------------------|
C|----------------------------------3-------|
G|----------------------------------3-------|
D|-00-3p0-0-5p0-00-0-3p0-0-5p0-00-0-1-------|
                               xx x

Chorus:

First both guitars play this once:
d|-------------------------------------------|
A|-------------------------------------------|
F|-------------------------------------------|
C|-------------------------------------------|
G|----8-7-8-88888888888-8\-------------------|
D|-/6----------------------------------------|
            xxxxxxxxxxx


Then they take a part each:

Guitar 1:
d|--------------------------------------------|
A|--------------------------------------------|
F|--------------------------------------------|
C|--------------------------------------------|
G|--------------------------------------------|
D|-111111111111/-555555555555-----------------|


Guitar 2:
d|--------------------------------------------|
A|--------------------------------------------|
F|--------------------------------------------|
C|-5-7-5-7~~-7-5~-5---------------------------|
G|------------------8-7-----------------------|
D|--------------------------------------------|

In the 2nd and 3rd chorus, a third guitar is added, harmonizing:

d|--------------------------------------------|
A|--------------8-10-8-10~-10-8~-8------------|
F|---10-9-10~~---------------------10-9-------|
C|-8------------------------------------------|
G|--------------------------------------------|
D|--------------------------------------------|


After every chorus they play something like this:

d|--------------------------------------------------------------------------------|
A|--------------------------------------------------------------------------------|
F|--------------------------------------------------------------------------------|
C|--5-55-55-55-55-55-5---1010101010101010101010101010\\-------3-------------------|
G|--5-55-55-55-55-55-5---1010101010101010101010101010\\-------3-------------------|
D|-/3-33-33-33-33-33-3-/-8-8-8-8-8-8-8-8-8-8-8-8-8-8-\\--00-0-1-------------------|
                                                         xx x
Bridge 2:10 (I am not sure on this part):

d|----------------------------------------------------------------------------------------|
A|----------------------------------------------------------------------------------------|
F|----------------------------------------------------------------------------------------|
C|----------------------------------------------------------/8-7-5-7-5-----7~--7h8-5-5/8~-|
G|-5~-5-7-8-/10-8-7-------10-8-7h8p7h8p7h8p7h8p7h8p7h8-----------------8~-----------------|
D|------------------8~--8--------------------------------5~-------------------------------|

There's is another guitar harmonizing at some points, but I don't like tabbing it out...

That was all the riffs, so now you should be able to figure it out, or at least have an 
of how to play it.

I'll be posting more Volbeat tabs soon.


| /  slide down the neck
| \  slide up the neck
| h  hammer-on
| p  pull-off
| ~  vibrato
| +  harmonic
| x  Mute note
===============================================================================
Related for Caroline Leaving tab