Song name
# A B C D E F G H I J K L M N O P Q R S T U V W X Y Z

Volcano Choir - Almanac tab

-------------------------------------------------------------------------------
                             ALMANAC - Volcano Choir
-------------------------------------------------------------------------------
Tabbed by:Tom Hill
E-mail:tom-hill95@hotmail.co.uk

This riff is played repeatedly throughout the song. Listen carefully for ghost notes,
harmonics and subtle changes.

The rest of the song shouldn't be hard for you work out, but when I get some free time 
I'll complete it.

Tuning: Standard

e|--------------------------------------------------------------------17-------|
B|-----7--5-----(5)---------------------------------------------------15-------|
G|-------------------9--7-------------------2--4------------------7+-----------|
D|-------------------9--5------7h9p7/5------4--5-------------------------------|
A|-------------------------------------------------5-----5-7/9-----------------|
E|--3--------------3---------3------------3------------3-----------------------|

Or it can be played like this...

e|-----2--0-----(0)--------------------------------------------------17--------|
B|-------------------5--3--------------------------------------------15--------|
G|-------------------4--0------2h4p2p0-----2--4------------------7+------------|
D|-----------------------------------------4--5---0-----0h2/4------------------|
A|-----------------------------------------------------------------------------|
E|--3--------------3---------3------------3------------3-----------------------|



************************************

| /   slide up
| \   slide down
| h   hammer-on
| p   pull-off
| ~   vibrato
| +   harmonic
| x   Mute note
| b   Bend
| pb  Pre-bend
| br  Bend release
| pbr Pre-bend release
| brb Bend release bend

************************************
Tap to rate this tab
# A B C D E F G H I J K L M N O P Q R S T U V W X Y Z