Song name
# A B C D E F G H I J K L M N O P Q R S T U V W X Y Z

Volcano Choir - Byegone tab

----------------------------------------------------------------
                             BYEGONE - Volcano Choir
----------------------------------------------------------------
Tabbed by: Bowen Jones
E-mail: jonesb93@gmail.com

Tuning: Standard

The main intro/verse is just the same note being repeated, but with a certain strumming pattern:

    dduudduudduu 
e|-------------------------------------------------------------|
B|-------------------------------------------------------------|
G|-------------------------------------------------------------|
D|-------------------------------------------------------------|
A|--333333333333etc.-------------------------------------------|
E|-------------------------------------------------------------|

And the background of the intro/verse goes something like this:

e|--0-------0-0---0--------------------------------------------|
B|----5---5--5--5----------------------------------------------|
G|------9------------------------------------------------------|
D|-------------------------------------------------------------|
A|-------------------------------------------------------------|
E|-------------------------------------------------------------|

Chorus:

e|-------------------------------------------------------------|
B|-----------55b-----------------------------------------------|
G|--5-----55---------------------------------------------------|
D|--5--55----------3-33-3-3-333--------------------------------|
A|--3--------------3-33-3-3-333--------------------------------|
E|-----------------1-11-1-1-111--------------------------------|

Outro (plus the main intro/verse riff):

e|-------------------------------------------------------------|
B|-------------------------------------------------------------|
G|----0-------0-------0-------0--------------------------------|
D|--7---7---7---7---7---7---7---7------------------------------|
A|-------------------------------------------------------------|
E|-------------------------------------------------------------|


************************************

| d   down strum
| u   up strum
| /   slide up
| \   slide down
| h   hammer-on
| p   pull-off
| ~   vibrato
| +   harmonic
| x   Mute note
| b   Bend
| pb  Pre-bend
| br  Bend release
| pbr Pre-bend release
| brb Bend release bend

************************************
Tap to rate this tab
 
# A B C D E F G H I J K L M N O P Q R S T U V W X Y Z