Song name
# A B C D E F G H I J K L M N O P Q R S T U V W X Y Z

Volcano Choir - Tiderays tab

----------------------------------------------------------------
                             TIDERAYS - Volcano Choir
----------------------------------------------------------------
Tabbed by: Bowen Jones
E-mail: jonesb93@gmail.com

Tuning: Standard

e|-------------------7------0---0------------------------------|
B|--------0------7h9---0-0----4---4-0--------------------------|
G|----4/6---6/8------------------------------------------------|
D|-------------------------------------------------------------|
A|--2---------------(7)----------------------------------------|
E|-------------------------------------------------------------|


e|------------------7-----0---0--------------------------------|
B|--------0-----7h9---0-0---4---4/2----------------------------|
G|----4/6---6/8------------------------------------------------|
D|-------------------------------------------------------------|
A|--2--------------(7)-----------------------------------------|
E|-------------------------------------------------------------|


e|-------------------------------------------------------------|
B|---0-----0-----0---0-----------------------------------------|
G|-----2/4---6/8---8-------------------------------------------|
D|----------------------4--------------------------------------|
A|--2----------------------------------------------------------|
E|-------------------------------------------------------------|


e|-------------------------------------------------------------|
B|-------------------------------------------------------------|
G|--66-66-66-66-6-6---44-44-44-44-4-4--------------------------|
D|--66-66-66-66-6-6---44-44-44-44-4-4--------------------------|
A|--44-44-44-44-4-4---22-22-22-22-2-2--------------------------|
E|-------------------------------------------------------------|


e|--33-33-33-33-3-3--------------------------------------------|
B|--66-66-66-66-6-6--------------------------------------------|
G|--55-55-55-55-5-5---44-44-44-44-4-4--------------------------|
D|--55-55-55-55-5-5---44-44-44-44-4-4--------------------------|
A|--33-33-33-33-3-3---22-22-22-22-2-2--------------------------|
E|-------------------------------------------------------------|

e|-------------------------------------------------------------|
B|---------------5/7-3---------------5/7-3---------------------|
G|--88-88-88-88---------44-44-44-44----------------------------|
D|--88-88-88-88---------44-44-44-44----------------------------|
A|--66-66-66-66---------22-22-22-22----------------------------|
E|-------------------------------------------------------------|

e|-------------------------------------------------------------|
B|---------------5/7-3-----------------------------------------|
G|--66-66-66-66---------44-44-4~~------------------------------|
D|--66-66-66-66---------44-44-4~~------------------------------|
A|--44-44-44-44---------22-22-2~~------------------------------|
E|-------------------------------------------------------------|


************************************

| /   slide up
| \   slide down
| h   hammer-on
| p   pull-off
| ~   vibrato
| +   harmonic
| x   Mute note
| b   Bend
| pb  Pre-bend
| br  Bend release
| pbr Pre-bend release
| brb Bend release bend

************************************
Tap to rate this tab
# A B C D E F G H I J K L M N O P Q R S T U V W X Y Z