Song name
# A B C D E F G H I J K L M N O P Q R S T U V W X Y Z

Voltaire - Land Of The Dead tab

Land of the Dead by Voltaire
More Voltaire tabs without chords and this one is freash. It's accuarate and done by ear 
so enjoy. You may remember this one from the Billy and Mandy's Big Boogie Adventure.
Intro
|------------------------------------------------|
|------------------------------------------------|
|------------------------------------------------|
|------------------------------------------------|
|------------------------------------------------|
|---------3---------3-3-3---------3--------------|
|-5-5-5---5-5-5-5-5----5-5-5---5-5-5-------------|

Verse1
|---------------------------------------------|
|---------------------------------------------|
|---------------------------------------------|
|---------------------------------------------|
|---------------------------------------------|
|--------------3----3-------------3-----------|
|--6-6-6--5---5------6-6-6-5------------------|
x2

|---------------------------------------------------|
|---------------------------------------------------|
|---------------------------------------------------|
|---------------------------------------------------|
|---------------------------------------------------|
|-5----------5--------5-------5-------5-------------|
|--4-4-4---4-4-4-------4-4----4-4-------------------|
x2

Chorus
|------------------------------------------------------|
|------------------------------------------------------|
|------------------------------------------------------|
|------------------------------------------------------|
|------------------------------------------------------|
|--5-4-5-4-5-4-5-4-------------------------------------|
|------------------------5-5-5-5-5-5-5-5---------------|

|--------------------------------------------------|
|--------------------------------------------------|
|--------------------------------------------------|
|--------------------------------------------------|
|--------------------------------------------------|
|-----4----4-4-------4----4----4-4-----------------|
|--5----5-------5-5----5----5--------5-5-----------|
x4
Outro
|-----------------------------------------------------|
|-----------------------------------------------------|
|-----------------------------------------------------|
|-----------------------------------------------------|
|-----------------------------------------------------|
|-----------------------------------------------------|
|--5-4-5-4-5-4-5-4-5-4-5-4-5-4-5-4--------------------|

Simple as this. This song isn't long, just 2 minutes, and a heck of a lot of fun.
Tap to rate this tab
 
# A B C D E F G H I J K L M N O P Q R S T U V W X Y Z