Song name
# A B C D E F G H I J K L M N O P Q R S T U V W X Y Z

Voltaire - When Youre Evil tab

When You're Evil by Voltaire tab
Yet another Voltaire tab so enjoy. This time it's ear done for one of his most popular songs.
Intro
|-------------------------------------------------------|
|-------------------------------------------------------|
|-------------------------------------------------------|
|-------------------------------------------------------|
|------------------5v-----------------------------------|
|-3v-3-3--4--4------5-5-5-5-4v-4v--3-3-4-4--------------|
x2

Verse1
|-----------------------------------------------------|
|-----------------------------------------------------|
|-----------------------------------------------------|
|-----------------------------------------------------|
|--------------------------------------------4--------|
|--3-4-3-3-4-4--3-3v--5-5-5-3-3-3---------------------|

|----------------------------------------------------|
|----------------------------------------------------|
|----------------------------------------------------|
|----------------------------------------------------|
|--3--4-4-3-4-4-3-4-4-3-4-4-3-4-4--3-----------------|
|----------------------------------------------------|
x2
verse2
|-------------------------------------------------|
|-------------------------------------------------|
|-------------------------------------------------|
|-------------------------------------------------|
|-------------------------------------------------|
|-3-3-4-5-5-3-3-4-5-5-3-3v-3-3-4-4----------------|

|-------------------------------------------------|
|-------------------------------------------------|
|-------------------------------------------------|
|-------------------------------------------------|
|--3-4-4-3-4-4-3-4-4-3-4-4-3-4-4-3----------------|
|-------------------------------------------------|
x2

|-------------------------------------------------|
|-------------------------------------------------|
|-------------------------------------------------|
|-------------------------------------------------|
|-------------------------------------------------|
|-3-3-4-5-5-3-3-4-5-5-3-3v-3-3-4-4----------------|

verse3
|-------------------------------------------------|
|-------------------------------------------------|
|-------------------------------------------------|
|-------------------------------------------------|
|--------------------------3-4-4-3-4-4------------|
|--3-4-4-5-5-4-5-4-5-4----------------------------|
x3

Verse4
|----------------------------------------------------|
|----------------------------------------------------|
|----------------------------------------------------|
|----------------------------------------------------|
|--3--4-4-3-4-4-3-4-4-3-4-4-3-4-4--3-----------------|
|----------------------------------------------------|

|-------------------------------------------------|
|-------------------------------------------------|
|-------------------------------------------------|
|-------------------------------------------------|
|-------------------------------------------------|
|-3-3-4-5-5-3-3-4-5-5-3-3v-3-3-4-4----------------|
x3

Sad Part
|----------------------------------------------------------|
|----------------------------------------------------------|
|----------------------------------------------------------|
|----------------------------------------------------------|
|---------------4-4-4v-4v----------------------------------|
|--3--3-4-4-4--------------3-4-4-3-4-4-3-------------------|


Outro
|-------------------------------------------------|
|-------------------------------------------------|
|-------------------------------------------------|
|-------------------------------------------------|
|-------------------------------------------------|
|--3-4-5-6-5-4-3-4-5-6----------------------------|
Tap to rate this tab
 
# A B C D E F G H I J K L M N O P Q R S T U V W X Y Z