Voltaire - Robber Baron tab

Robber Baron by Voltaire.
I just can't stop transcribing this guy's songs. Voltaire is so skilled, catchy, and 
dark that I like him. Anyway here's the tab.
Intro
|------------------------------------------------------|
|------------------------------------------------------|
|------------------------------------------------------|
|-3v-4v-3v-4v-3-4-3-4----------------------------------|
|----------------------------3-4-4-4--3-4-4-4----------|
|------------------------------------------------------|

|-------------------------------------------------|
|-------------------------------------------------|
|-------------------------------------------------|
|-------------------------------------------------|
|---3-4-4-4-3-4-4-4-3-4-3-4-3-4-4-4---------------|
|-------------------------------------------------|
Verse1
|---------------------------------------------------|
|---------------------------------------------------|
|---------------------------------------------------|
|---------------------------------------------------|
|-3-4-5-3-3-4-5-3-3v-3-4-5-4-3-4-5-4----------------|
|---------------------------------------------------|
x3

|--------------------------------------------------|
|--------------------------------------------------|
|--------------------------------------------------|
|--------------------------------------------------|
|-3-4-5-4-4-3-4-4-3-4-5-4-4-3-4-4------------------|
|--------------------------------------------------|
x2

Interlude
|-------------------------------------------------|
|-------------------------------------------------|
|-------------------------------------------------|
|-------------------------------------------------|
|--3-3-3-3-3-4-3-4--3-2-3-4-3-2-3-4---------------|
|-------------------------------------------------|

Chorus
|--------------------------------------------------|
|--------------------------------------------------|
|--------------------------------------------------|
|--------------------------------------------------|
|--3-4-5-4-3-4-5-4-3-3-3-3-4-4-4-4-----------------|
|--------------------------------------------------|
x2
|-------------------------------------------------|
|-------------------------------------------------|
|-------------------------------------------------|
|-------------------------------------------------|
|---3-4-4-4-3-4-4-4-3-4-3-4-3-4-4-4---------------|
|-------------------------------------------------|
x2
|--------------------------------------|
|--------------------------------------|
|--------------------------------------|
|--------------------------------------|
|--------------------------------------|
|--3-3-3-3-4-3-4-3-4-4-3-4-4-3---------|
verse2
|---------------------------------------------------|
|---------------------------------------------------|
|---------------------------------------------------|
|---------------------------------------------------|
|-3-4-5-3-3-4-5-3-3v-3-4-5-4-3-4-5-4----------------|
|---------------------------------------------------|
x3

Outro
|---------------------------------------------------|
|---------------------------------------------------|
|---------------------------------------------------|
|---------------------------------------------------|
|---3-4-3-4-3-4-3-4---------------------------------|
|-----------------------3-4-3-4-3-4-3-4-------------|
Tap to rate this tab
 
# A B C D E F G H I J K L M N O P Q R S T U V W X Y Z