Song name
# A B C D E F G H I J K L M N O P Q R S T U V W X Y Z

Voltaire - On Gothic Ground tab

On Gothic Grounds by Voltaire
This is a rare and incredibly strange ambient piece by Voltaire. I think it may be 
possible to play on guitar but if it doesn't sound right, it's for then it's not. Well, my 
ears are on the job so Enjoy.
|-------------------------------------------------|
|-------------------------------------------------|
|-------------------------------------------------|
|--3-3-3-4-3-3-4-3-3-3-3-4-3-3-3-3----------------|
|-------------------------------------------------|
|-------------------------------------------------|

|--------------------------------------------------------------|
|--------------------------------------------------------------|
|----------------------------------------------3-3-3-3---------|
|------------3-3----3----3-----4----4--------------------------|
|--4v-5--3------4----4----4-----5----5-------------------------|
|--------------------------------------------------------------|

|---------------------------------------------------------|
|---------------------------------------------------------|
|-3-3------------3-3--------------------------------------|
|------3----3-----------3v-4v-3v-4v-3v-4------------------|
|---------4----4---------------------------------5-5------|
|---------------------------------------------------------|

This is a short song so play slow and hope for the best results.
Hear it at www.youtube.com/watch?v=Lxhczxplhro&feature=related
Tap to rate this tab
 
# A B C D E F G H I J K L M N O P Q R S T U V W X Y Z