Song name
# A B C D E F G H I J K L M N O P Q R S T U V W X Y Z

Voltaire - Hell In A Handbasket tab

Hell in A Handbasket
Another Voltaire song transcribed by ear. Enjoy.
Intro slow
|---------------------------------------------------------|
|---------------------------------------------------------|
|---------------------------------------------------------|
|---------------------------------------------------------|
|----------------------------4---------------4------------|
|-3---3---3--3--3--3--3---3-3-3-3-3----3-3----------------|
x2 (slightly faster second time).
Verse1
|----------------------------------------------|
|----------------------------------------------|
|----------------------------------------------|
|----------------------------------------------|
|-5-5------------------------------------------|
|------3-4-5-3-4-5-3-3-4-5-3-4-5-5-------------|

|---------------------------------------------------|
|---------------------------------------------------|
|---------------------------------------------------|
|---------------------------------------------------|
|---------------------------------------------------|
|--3-3-3-4-5-4-5-3-4-5-3-4-5-4-4-4------------------|

Verse2 faster
|-------------------------------------------|
|-------------------------------------------|
|-------------------------------------------|
|-------------------------------------------|
|--4-4-4-4-----------------4-4-4-4----------|
|-------------3-4-5-3-4-5-----------2-3-----|
faster
|------------------------------------------------|
|------------------------------------------------|
|------------------------------------------------|
|------------------------------------------------|
|------------------------------------------------|
|--2-2-2-3-4-4-3-2-2-3-2-3-2-3-2-3-2-------------|

Chorus slightly slower
|---------------------------------------------------|
|---------------------------------------------------|
|---------------------------------------------------|
|---------------------------------------------------|
|------------------4-4-4-4---4----------------------|
|--3-4-5-3-4-5-----------4---4-3-4-5-3--------------|

|-------------------------------------------------|
|-------------------------------------------------|
|-------------------------------------------------|
|-------------------------------------------------|
|------4-4-4-4-4-----------------4-4--------------|
|-3-3--------------3-4-5-3-4-5------3-------------|

Verse3 slightly faster
|--------------------------------------------------|
|--------------------------------------------------|
|--------------------------------------------------|
|--------------------------------------------------|
|--4----4----4----4--------------------------------|
|-----3----3----3----3-4-4-3-3-3-4-5-4-------------|
x2

|---------------------------------------------------------|
|---------------------------------------------------------|
|---------------------------------------------------------|
|---------------------------------------------------------|
|----------------------------4---------------4------------|
|-3---3---3--3--3--3--3---3-3-3-3-3----3-3----------------|
Outro
|-----------------------------------------------------|
|-----------------------------------------------------|
|-----------------------------------------------------|
|-----------------------------------------------------|
|--4-----4-----4----4---------------------------------|
|-----3-----3-----3----3-4-4-3-3-3-4-5-4--------------|
Tap to rate this tab
 
# A B C D E F G H I J K L M N O P Q R S T U V W X Y Z